Song name
# A B C D E F G H I J K L M N O P Q R S T U V W X Y Z

Slow Coming Day - Watch It Fall Apart tab

yeah this tab is pretty much right i kinda did it so one guitar could play the whole thing.

.=palm mute
r=let ring
x=scratch

 guitar 1
 intro
(distortion)
e-------------------------------------------------|
b-------------------------------------------------|
g-------------------11----------------------------|      2x
d--9-9--11-11-12-12--.--9-9-5-5-7-----------------|
a--9-9---.-.--.--.------.-.-.-.-.-----------------|
D--9-9--------------------------------------------|

e-------------------------------------------------|
b-------------------------------------------------|
g--14-----------------11--------------------------|      2x
d-----11-11-12-12--------9-9-5-5-7r---------------|
a-------------------------------------------------|
D-------------------------------------------------|

e-------------------------------------------------|
b-------------------------------------------------|
g--4444444444444444-------------------------------|
d--44444444444444440000000000000000---------------|
a--22222222222222220000000000000000---------------|
D------------------0000000000000000---------------|

e-------------------------------------------------|
b-------------------------------------------------|
g--7777777777777777-7-6-7-7-7-7777-4--------------|
d--7777777777777777-7-6-7-7-9-7777-6--------------|      2x
a--5555555555555555-5-4-5-5-9-5555-6--------------|
D-------------------------------------------------|

 verse
(palm muted)
e-------------------------------------------------|
b-------------------------------------------------|
g--4-4-4-4-2-2-2-2--------------------------------|
d--4-4-4-4-2-2-2-2-5-5-5-5-7-7-7-7----------------|      4x
a--22222222000000005-5-5-5-7-7-7-7----------------|
D------------------3333333355555555---------------|
caught up in apeerences...

chorus
e-------------------------------------------------|
b-------------------------------------------------|
g--4-4-7-7----------------------------------------|
d--4-4-7-7-5-5--5-5-------------------------------|      4x
a--2-2-5-5-5-5--5-5-------------------------------|
D----------5-5--5-5-------------------------------|
watching it fall apart...
and on the fourth time let the last note ring

and then play..
verse(again)
chorus

 bridge
(clean)
e-------------------------------------------------|
b-------------------------------------------------|
g------------------2-2-2-2------------------------|
d-----7-7-----------------------------------------|
a-5-5-----4-4-4-4-----------7-7-7-7---------------|
D-------------------------------------------------|
hope she finds the answer...

 outro
(distortion)
e-------------------------------------------------|
b-------------------------------------------------|
g-12-12-11-11-9-9-7-7-6-6-4-4-6-6-7-7-------------|       2x
d-------------------------------------------------|
a-------------------------------------------------|
D-------------------------------------------------|

and then it goes to
e-------------------------------------------------|
b-------------------------------------------------|
g-12-12-11-11-9-9-7-7-6-6-4-4-6-6-7-7-------------|       2x
d--x--x--x--x-x-x-x-x-x-x-x-x-x-x-x-x-------------|
a-10-10--9--9-7-7-5-5-4-4-2-2-4-4-5-5-------------|
D-------------------------------------------------|

e-------------------------------------------------|
b-------------------------------------------------|
g-------------------------------------------------|
d-5r--7r-8r--9r-----------------------------------|
a-5r--7r-8r--9r-----------------------------------|
D-5r--7r-8r--9r-----------------------------------|
and thats the end

www.slowcomingday.com
Tap to rate this tab
 
# A B C D E F G H I J K L M N O P Q R S T U V W X Y Z