Song name
# A B C D E F G H I J K L M N O P Q R S T U V W X Y Z

Slowdive - Souvlaki Space Station tab

Beginning of the song goes like this and is repeated throughout the song:
e-----------------------|
B--9----12----7----12---|
G--9----12----7----12---|
D-----------------------|
A-----------------------|
E-----------------------|

The second part goes like this and is also repeated throughout the song:
e------------------------0-----------------------|
B------------------0-----------------------------|
G-------------5----------------5-----------------|
D--------7---------------------------------------|
A----0-------------------------------------------|
E------------------------------------------------|

e----------------0-------------------------------|
B-------------3----3-----------------------------|
G---------2-----------2--------------------------|
D-----0------------------------------------------|
A------------------------------------------------|
E------------------------------------------------|

Email me if see the need to correct something
Tap to rate this tab
# A B C D E F G H I J K L M N O P Q R S T U V W X Y Z