Song name
# A B C D E F G H I J K L M N O P Q R S T U V W X Y Z

Slowdive - Machune Gun tab

Verse:

Standard Tuning
e|--0---------2----2----2-----------------------------------------|
B|--2---------2----3----2-----------------------------------------|
G|--2----1----2----2----2-----------------------------------------|
D|--2----2----4----0----0-----------------------------------------|
A|--0----2----4---------------------------------------------------|
E|-------0----2---------------------------------------------------|
    

Chorus:

Standard Tuning
e|--2---------2---------0---------0--------------------------|
B|--2---------2---------2---------0--------------------------|
G|--2---------2---------2---------2--------------------------|
D|--4---------6---------2---------2--------------------------|
A|--4---------4---------0------------------------------------|
E|--2---------2----------------------------------------------|
    (This part might be kind of wrong, it's hard to tell with the fuzz)    

Guitar 2:

e|--9--9--9--7--7----------------------------------------------|
B|-----------------10--9--7--10--12----------------------------|
G|-------------------------------------------------------------|
D|-------------------------------------------------------------|
A|-------------------------------------------------------------|
E|-------------------------------------------------------------|
Tap to rate this tab
# A B C D E F G H I J K L M N O P Q R S T U V W X Y Z