Song name
# A B C D E F G H I J K L M N O P Q R S T U V W X Y Z

Slowlife - Humiliation tab

-------------------------------------------------|
-------------------------------------------------|
-------------------------------------------------|
---------------9--10---9--7h9--------------------|
-----8---7---------------------------------------|
-0-0--0-0--0-0---0---0---------------------------|

-------------------------------------------------|
-------------------------------------------------|
-------------------------------------------------|
-------------------------------------------------|
-----8-----7-----10-12-9-------------------------|
-0-0---0-0---0-0-8--10-7-------------------------|
Tap to rate this tab
 
# A B C D E F G H I J K L M N O P Q R S T U V W X Y Z