Song name
# A B C D E F G H I J K L M N O P Q R S T U V W X Y Z

Slowreader - Politics Music And Drugs tab

na na na na na na
|-intro-|          C                         G*                          C               
               G*
e--|0-0-0-0-0-0-0-0-|--1-1-1-1-1-1-1-1-|--0-0-0-0-0-0-0-0-|--1-1-1-1-1-1-1-1--------|
b--|1-1-1-1-1-1-1-1-|--0-0-0-0-0-0-0-0-|--1-1-1-1-1-1-1-1-|--0-0-0-0-0-0-0-0--------|
g--|0-0-0-0-0-0-0-0-|--0-0-0-0-0-0-0-0-|--0-0-0-0-0-0-0-0-|--0-0-0-0-0-0-0-0||-2x---|
d--|2-2-2-2-2-2-2-2-|--0-0-0-0-0-0-0-0-|--2-2-2-2-2-2-2-2-|--0-0-0-0-0-0-0-0--------|
a--|3-3-3-3-3-3-3-3-|--2-2-2-2-2-2-2-2-|--3-3-3-3-3-3-3-3-|--2-2-2-2-2-2-2-2--------|
E--|0-0-0-0-0-0-0-0-|--3-3-3-3-3-3-3-3-|--0-0-0-0-0-0-0-0-|--3-3-3-3-3-3-3-3--------|

|-verse-|          C                         G*                               C
e--|0-0-0-0-0-0-0-0-----|--1-1-1-1-1-1-1-1-|----0---0---0---0--0--0--0--0--|
b--|1-1-1-1-1-1-1-1-----|--0-0-0-0-0-0-0-0-|----1---1---1---1--1--1--1--1--|
g--|0-0-0-0-0-0-0-0-----|--0-0-0-0-0-0-0-0-|----0---0---0---0--0--0--0--0--|
d--|2-2-2-2-2-2-2-2-----|--0-0-0-0-0-0-0-0-|----2---2---2---2--2--2--2--2--|
a--|3-3-3-3-3-3-3-3-----|--2-2-2-2-2-2-2-2-|----3---3---3---3--3--3--3--3--|
E--|0-0-0-0-0-0-0-0-----|--3-3-3-3-3-3-3-3-|----0---0---0---0--0--0--0--0--|
curious of many things but    too lazy to move       far enough to spread the wings
                    G*
e--|-0--0--0--0--0--0--0--0-----|
b--|-1--1--1--1--1--1--1--1-----|
g--|-0--0--0--0--0--0--0--0-----|
d--|-2--2--2--2--2--2--2--2-----|
a--|-3--3--3--3--3--3--3--3-----|
E--|-0--0--0--0--0--0--0--0-----|
        are stuck on with hot glue
|-chorus-|    F                           G*                            C
e--|1-1-1-1-1-1-1-1-|--1-1-1-1-1-1-1-1-|-----0---0---0---0---0--0--0--0|
b--|1-1-1-1-1-1-1-1-|--0-0-0-0-0-0-0-0-|-----1---1---1---1---1--1--1--1|
g--|2-2-2-2-2-2-2-2-|--0-0-0-0-0-0-0-0-|-----0---0---0---0---0--0--0--0|
d--|3-3-3-3-3-3-3-3-|--0-0-0-0-0-0-0-0-|-----2---2---2---2---2--2--2--2|
a--|3-3-3-3-3-3-3-3-|--2-2-2-2-2-2-2-2-|-----3---3---3---3---3--3--3--3|
E--|1-1-1-1-1-1-1-1-|--3-3-3-3-3-3-3-3-|-----0---0---0---0---0--0--0--0|
           if the                     cloud cover           main-tains its rain all summer I'll
                 F                           G*                            C
e--|1-1-1-1-1-1-1-1-|--1-1-1-1-1-1-1-1-|--0-0-0-0-0-0-0-0|
b--|1-1-1-1-1-1-1-1-|--0-0-0-0-0-0-0-0-|--1-1-1-1-1-1-1-1|
g--|2-2-2-2-2-2-2-2-|--0-0-0-0-0-0-0-0-|--0-0-0-0-0-0-0-0|
d--|3-3-3-3-3-3-3-3-|--0-0-0-0-0-0-0-0-|--2-2-2-2-2-2-2-2|
a--|3-3-3-3-3-3-3-3-|--2-2-2-2-2-2-2-2-|--3-3-3-3-3-3-3-3|
E--|1-1-1-1-1-1-1-1-|--3-3-3-3-3-3-3-3-|--0-0-0-0-0-0-0-0|
        still               shine          pay               all wide
                  F                           G*                            C
e--|1-1-1-1-1-1-1-1-|--1-1-1-1-1-1-1-1-|--0-0-0-0-0-0-0-0|
b--|1-1-1-1-1-1-1-1-|--0-0-0-0-0-0-0-0-|--1-1-1-1-1-1-1-1|
g--|2-2-2-2-2-2-2-2-|--0-0-0-0-0-0-0-0-|--0-0-0-0-0-0-0-0|
d--|3-3-3-3-3-3-3-3-|--0-0-0-0-0-0-0-0-|--2-2-2-2-2-2-2-2|
a--|3-3-3-3-3-3-3-3-|--2-2-2-2-2-2-2-2-|--3-3-3-3-3-3-3-3|
E--|1-1-1-1-1-1-1-1-|--3-3-3-3-3-3-3-3-|--0-0-0-0-0-0-0-0|
         next    to      a                 tender             ton
              Am
e--|--0---0---0---0---0--0--0--0--|
b--|--1---1---1---1---1--1--1--1--|
g--|--2---2---2---2---2--2--2--2--|
d--|--2---2---2---2---2--2--2--2--|
a--|--0---0---0---0---0--0--0--0--|
E--|--0---0---0---0---0--0--0--0--|
       one in place of the innocent girl
                  F                           G*                            C
e--|1-1-1-1-1-1-1-1-|--1-1-1-1-1-1-1-1-|--0-0-0-0-0-0-0-0|
b--|1-1-1-1-1-1-1-1-|--0-0-0-0-0-0-0-0-|--1-1-1-1-1-1-1-1|
g--|2-2-2-2-2-2-2-2-|--0-0-0-0-0-0-0-0-|--0-0-0-0-0-0-0-0|
d--|3-3-3-3-3-3-3-3-|--0-0-0-0-0-0-0-0-|--2-2-2-2-2-2-2-2|
a--|3-3-3-3-3-3-3-3-|--2-2-2-2-2-2-2-2-|--3-3-3-3-3-3-3-3|
E--|1-1-1-1-1-1-1-1-|--3-3-3-3-3-3-3-3-|--0-0-0-0-0-0-0-0|
          i            hard--ly                understand
|-verse2-|          C                                       G*                               C
e--|---0--0--0--0--0--0--0--0-------|--1-1-1-1-1-1-1-1-|----0---0---0---0--0--0--0--0--|
b--|---1--1--1--1--1--1--1---1------|--0-0-0-0-0-0-0-0-|----1---1---1---1--1--1--1--1--|
g--|---0--0--0--0--0--0--0--0-------|--0-0-0-0-0-0-0-0-|----0---0---0---0--0--0--0--0--|
d--|---2--2--2--2--2--2--2--2-------|--0-0-0-0-0-0-0-0-|----2---2---2---2--2--2--2--2--|
a--|---3--3--3--3--3--3--3--3-------|--2-2-2-2-2-2-2-2-|----3---3---3---3--3--3--3--3--|
E--|---0--0--0--0--0--0--0--0-------|--3-3-3-3-3-3-3-3-|----0---0---0---0--0--0--0--0--|
      perfect in most social gatherings      of no more than 10    perfectly groomed people
                    G*
e--|--0---0---0---0--0--0--0--0-----|
b--|--1---1---1---1--1--1--1--1-----|
g--|--0---0---0---0--0--0--0--0-----|
d--|--2---2---2---2--2--2--2--2-----|
a--|--3---3---3---3--3--3--3--3-----|
E--|--0---0---0---0--0--0--0--0-----|
       keeping tabs on what they spend
|-chorus2-|    F                           G*                                       C
e--|1-1-1-1-1-1-1-1-|--1-1-1-1-1-1-1-1-|-----0---0---0---0---0---0---0--0|
b--|1-1-1-1-1-1-1-1-|--0-0-0-0-0-0-0-0-|-----1---1---1---1---1---1---1--1|
g--|2-2-2-2-2-2-2-2-|--0-0-0-0-0-0-0-0-|-----0---0---0---0---0---0---0--0|
d--|3-3-3-3-3-3-3-3-|--0-0-0-0-0-0-0-0-|-----2---2---2---2---2---2---2--2|
a--|3-3-3-3-3-3-3-3-|--2-2-2-2-2-2-2-2-|-----3---3---3---3---3---3---3--3|
E--|1-1-1-1-1-1-1-1-|--3-3-3-3-3-3-3-3-|-----0---0---0---0---0---0---0--0|
        I       don't          have                    many       ways to tame the boring but
  F                           G*                                       C
e--|1-1-1-1-1-1-1-1-|--1-1-1-1-1-1-1-1-|-----0---0---0---0---0---0---0--0|
b--|1-1-1-1-1-1-1-1-|--0-0-0-0-0-0-0-0-|-----1---1---1---1---1---1---1--1|
g--|2-2-2-2-2-2-2-2-|--0-0-0-0-0-0-0-0-|-----0---0---0---0---0---0---0--0|
d--|3-3-3-3-3-3-3-3-|--0-0-0-0-0-0-0-0-|-----2---2---2---2---2---2---2--2|
a--|3-3-3-3-3-3-3-3-|--2-2-2-2-2-2-2-2-|-----3---3---3---3---3---3---3--3|
E--|1-1-1-1-1-1-1-1-|--3-3-3-3-3-3-3-3-|-----0---0---0---0---0---0---0--0|
         if                  you'd like                     to stay I'll tell you all I know
             F                           G*                                       Am
e--|1-1-1-1-1-1-1-1-|--1-1-1-1-1-1-1-1-|--0-0-0-0-0-0-0-0|
b--|1-1-1-1-1-1-1-1-|--0-0-0-0-0-0-0-0-|--1-1-1-1-1-1-1-1|
g--|2-2-2-2-2-2-2-2-|--0-0-0-0-0-0-0-0-|--2-2-2-2-2-2-2-2|
d--|3-3-3-3-3-3-3-3-|--0-0-0-0-0-0-0-0-|--2-2-2-2-2-2-2-2|
a--|3-3-3-3-3-3-3-3-|--2-2-2-2-2-2-2-2-|--0-0-0-0-0-0-0-0|
E--|1-1-1-1-1-1-1-1-|--3-3-3-3-3-3-3-3-|--0-0-0-0-0-0-0-0|
           about           politics,            music, and drugs
                  F                           G*                            C
e--|1-1-1-1-1-1-1-1-|--1-1-1-1-1-1-1-1-|--0-0-0-0-0-0-0-0|
b--|1-1-1-1-1-1-1-1-|--0-0-0-0-0-0-0-0-|--1-1-1-1-1-1-1-1|
g--|2-2-2-2-2-2-2-2-|--0-0-0-0-0-0-0-0-|--0-0-0-0-0-0-0-0|
d--|3-3-3-3-3-3-3-3-|--0-0-0-0-0-0-0-0-|--2-2-2-2-2-2-2-2|
a--|3-3-3-3-3-3-3-3-|--2-2-2-2-2-2-2-2-|--3-3-3-3-3-3-3-3|
E--|1-1-1-1-1-1-1-1-|--3-3-3-3-3-3-3-3-|--0-0-0-0-0-0-0-0|
              and then      --     its         time       to go
|-bridge-|     C                     Am             Em                     G*
e--|0-0-0-0-0-0-0-0-|--0-0-0-0-|--0-0-0-0-|--1-1-1-1-1-1-1-1|
b--|1-1-1-1-1-1-1-1-|--1-1-1-1-|--0-0-0-0-|--0-0-0-0-0-0-0-0|
g--|0-0-0-0-0-0-0-0-|--2-2-2-2-|--0-0-0-0-|--0-0-0-0-0-0-0-0|
d--|2-2-2-2-2-2-2-2-|--2-2-2-2-|--2-2-2-2-|--0-0-0-0-0-0-0-0|
a--|3-3-3-3-3-3-3-3-|--0-0-0-0-|--2-2-2-2-|--2-2-2-2-2-2-2-2|
E--|0-0-0-0-0-0-0-0-|--0-0-0-0-|--0-0-0-0-|--3-3-3-3-3-3-3-3|
              .....ooooh........aaaaaaah....ooooh........aaaaaaah....|--repeat til--|
                   C                                                 Am
e--|0-0-0-0-0-0-0-0-|--0-0-0-0-0-0-0-0-|--0-0-0-0-0-0-0-0|
b--|1-1-1-1-1-1-1-1-|--1-1-1-1-1-1-1-1-|--1-1-1-1-1-1-1-1|
g--|0-0-0-0-0-0-0-0-|--0-0-0-0-0-0-0-0-|--2-2-2-2-2-2-2-2|
d--|2-2-2-2-2-2-2-2-|--2-2-2-2-2-2-2-2-|--2-2-2-2-2-2-2-2|
a--|3-3-3-3-3-3-3-3-|--3-3-3-3-3-3-3-3-|--0-0-0-0-0-0-0-0|
E--|0-0-0-0-0-0-0-0-|--0-0-0-0-0-0-0-0-|--0-0-0-0-0-0-0-0|
                     Dear, I've looked and                 looked for days
                Em                              G*
e--|0-0-0-0-0-0-0-0-|--1-1-1-1-1-1-1-1-|--1-1-1-1-1-1-1-1|
b--|0-0-0-0-0-0-0-0-|--0-0-0-0-0-0-0-0-|--0-0-0-0-0-0-0-0|
g--|0-0-0-0-0-0-0-0-|--0-0-0-0-0-0-0-0-|--0-0-0-0-0-0-0-0|
d--|2-2-2-2-2-2-2-2-|--0-0-0-0-0-0-0-0-|--0-0-0-0-0-0-0-0|
a--|2-2-2-2-2-2-2-2-|--2-2-2-2-2-2-2-2-|--2-2-2-2-2-2-2-2|
E--|0-0-0-0-0-0-0-0-|--3-3-3-3-3-3-3-3-|--3-3-3-3-3-3-3-3|
              but found,         only at this point I've strayed

               C
e--|0-0-0-0-0-0-0-0-|
b--|1-1-1-1-1-1-1-1-|
g--|0-0-0-0-0-0-0-0-|
d--|2-2-2-2-2-2-2-2-|
a--|3-3-3-3-3-3-3-3-|
E--|0-0-0-0-0-0-0-0-|
       between my ears
          Am                           Em
e--|0-0-0-0-0-0-0-0-|--0-0-0-0-0-0-0-0|
b--|1-1-1-1-1-1-1-1-|--0-0-0-0-0-0-0-0|
g--|2-2-2-2-2-2-2-2-|--0-0-0-0-0-0-0-0|
d--|2-2-2-2-2-2-2-2-|--2-2-2-2-2-2-2-2|
a--|0-0-0-0-0-0-0-0-|--2-2-2-2-2-2-2-2|
E--|0-0-0-0-0-0-0-0-|--0-0-0-0-0-0-0-0|
      and i could almost say a sound
                  G*                                                  C
e--|1-1-1-1-1-1-1-1-|--1-1-1-1-1-1-1-1-|--0-0-0-0-0-0-0-0|
b--|0-0-0-0-0-0-0-0-|--0-0-0-0-0-0-0-0-|--1-1-1-1-1-1-1-1|
g--|0-0-0-0-0-0-0-0-|--0-0-0-0-0-0-0-0-|--0-0-0-0-0-0-0-0|
d--|0-0-0-0-0-0-0-0-|--0-0-0-0-0-0-0-0-|--2-2-2-2-2-2-2-2|
a--|2-2-2-2-2-2-2-2-|--2-2-2-2-2-2-2-2-|--3-3-3-3-3-3-3-3|
E--|3-3-3-3-3-3-3-3-|--0-0-0-0-0-0-0-0-|--0-0-0-0-0-0-0-0|
         but I'd rather sit and stare with you my Dear....|--repeat til end--|
there you go
if you fing error oh well
--du monte das kripey--
Tap to rate this tab
# A B C D E F G H I J K L M N O P Q R S T U V W X Y Z