Song name
# A B C D E F G H I J K L M N O P Q R S T U V W X Y Z

Slut - The Virgin Slut tab

drop D

intro \ verse
e-------------------------------------------------------------------------|
b-------------------------------------------------------------3-0~--------|
g-7-7-7-7-7-7-7-7-12-12-12-12-14-14-14-14-9-9-9-9-7-7-7-7-5-5-5-5-7-7-7-7-|
d-5-5-5-5-7-7-7-7-10-10-10-10-12-12-12-12-9-9-9-9-7-7-7-7-5-5-5-5-7-7-7-7-|
a-7-7-7-7-5-5-5-5-10-10-10-10-12-12-12-12-7-7-7-7-5-5-5-5-3-3-3-3-5-5-5-5-|
d-----------------10-10-10-10-12-12-12-12-------------------------5-5-5-5-|

pre chorus
e-----------------------------------------------------------------|
b-----------------------------------------------------------------|
g-12-12-12-12-12-12-12-12-12-12-12-12-12-12-12-12-9-9-7-7-5-5-5-5-|
d-12-12-12-12-12-12-12-12-12-12-12-12-12-12-12-12-9-9-7-7-5-5-5-5-|
a-10-10-10-10-10-10-10-10-10-10-10-10-10-10-10-10-7-7-5-5-3-3-3-3-|
d-------------------------10-10-10-10-10-10-10-10-0---0---0-------|

chorus  (just chords)
e----------|
b----------|
g-7-7-9-12-|
d-5-7-9-12-|
a-5-5-7-10-|
d-5-----10-|
Tap to rate this tab
# A B C D E F G H I J K L M N O P Q R S T U V W X Y Z