Song name
# A B C D E F G H I J K L M N O P Q R S T U V W X Y Z

Sly Caps - Time Goes Slow tab

tabbed by sean stengle i am tabbing guitar 1 in the song
intro
e---------------------------------------------------------------
b---------------------------------------------------------------
g---77-77--66-66-6--55-55--44-44-4--77-77--66-66-6--55555555-4--
d---77-77--66-66-6--55-55--44-44-4--77-77--66-66-6--55555555-4--
a---55-55--44-44-4--33-33--22-22-2--55-55--44-44-4--33333333-2--
E---------------------------------------------------------------
Pre-chorus
e-------------------------------------------------------
b-----------7-------------------------------------------
g--55-77-99-7-9---33-55-77-9-7--------------------------
d--55-77-99-5-9---33-55-77-9-7--------------------------
a--33-55-77---7---11-33-55-7-5--------------------------
E-------------------------------------------------------
play this twice
verse
e--------------------------------------
b--------------------------------------
g-77xxx-65xxxxxx-44xxx-32xxxxxx--------
d-77xxx-65xxxxxx-44xxx-32xxxxxx--------
a-55xxx-43xxxxxx-22xxx-10xxxxxx--------
E--------------------------------------
play this 3-4 x's
refrain
--------------------------------------
--------------------------------------
-33xxxxxxxx55xxxxxxxx7xx8xx9xx10-11---
-33xxxxxxxx55xxxxxxxx7xx8xx9xx10-11---
-11xxxxxxxx33xxxxxxxx5xx6xx7xx-8--9---
--------------------------------------
play this refrain 3 x's

bridge after solo
-----------------------------------------------
-----------------------------------------------
--33333333-55555555-77777777-55555555-33333333-
--33333333-55555555-77777777-55555555-33333333-
--11111111-33333333-55555555-33333333-11111111-
-----------------------------------------------
im still workin on the solo its pretty tough but here is your tab
if u like it cool if u dont ur gay
Tap to rate this tab
# A B C D E F G H I J K L M N O P Q R S T U V W X Y Z