Song name
# A B C D E F G H I J K L M N O P Q R S T U V W X Y Z

Sly Caps - Don Sue tab

Help us improve GuitareTab! Take a short survey!
--------------------------------------------------------------------------------
			     Don Sue - Sly Caps
--------------------------------------------------------------------------------

Tabbed by:Skynyrd 1515

Tuning:EADGBe

	Intro  (w/ Wah)
e|-------5-------5-------5-------5-------------------------------|
B|---9---5---9---5---9---5---9---5-------------------------------|
G|---9---6---9---6---9---6---9---6-------------------------------|
D|---9---7---9---7---9---7---9---7-------------------------------|
A|---7-------7--------7-------7----------------------------------|
E|---------------------------------------------------------------|
      E   A   E   A   E   A   E   A

	Verse
e|----------------------------5-x-x-5-x-5-x-5-x-x-x-x------------|
B|---9-x-x-9-x-9-x-9-x-x-x-x--5-x-x-5-x-5-x-5-x-x-x-x------------|
G|---9-x-x-9-x-9-x-9-x-x-x-x--6-x-x-6-x-6-x-6-x-x-x-x------------|
D|---9-x-x-9-x-9-x-9-x-x-x-x--7-x-x-7-x-7-x-7-x-x-x-x------------|
A|---7-x-x-7-x-7-x-7-x-x-x-x-------------------------------------|
E|---------------------------------------------------------------|
	
	Chorus
e|---------------------------------------------------------------|
B|---6-----6-----6-----6-----------------------------------------|
G|---6--3--6--3--6--3--6--3--------------------------------------|
D|---6--4--6--4--6--4--6--4--------------------------------------|
A|---4--4--4--4--4--4--4--4--------------------------------------|
E|------2-----2-----2-----2--------------------------------------|
 

the solo is kinda hard....i got sum of it but not all of it...i'll put it
on here when i get it all.....
Related for Don Sue tab