Song name
# A B C D E F G H I J K L M N O P Q R S T U V W X Y Z

Smak - Daire tab

/=slide up
\=slide down
p=pull of
h=hammer on
^=band
r=release
t=triplet
"=32nd note
x=pause
 
  intro       A part   
e --------|  |----------------|----------------|----------------|
B --------|  |----------------|----------------|----------------|
G 7-5-4-2-|  |--------------5-|--------------5-|--------------5-|
D --------|  |---2------0--4-5|---2------0--4--|---2------0--4-5|
A 9-7-5-3-|  |--2--2-2-2-25---|--2--2-2-2-25---|--2--2-2-2-25---|
E --------|  |0-----0-3-------|0-----0-3-------|0-----0-3-------|

|----------------|----------------|----------------|----------------|
|----------------|----------------|----------------|----------------|
|--------7-5-4-2-|--------------5-|--------------5-|--------------5-|
|---2------------|---2------0--4-5|---2------0--4--|---2------0--4-5|
|--2--2--9-7-5-3-|--2--2-2-2-25---|--2--2-2-2-25---|--2--2-2-2-25---|
|0-----0---------|0-----0-3-------|0-----0-3-------|0-----0-3-------|
                                         
|----------------|--------|----------------|-----------------||   
|----------------|--------|3--2----2-22----|-----------------||   
|--------------5-|--------|2--2----2-22----|--------4-44-----||   
|---2------0--4--|---2----|2--2----2-22----|4-44----4-44-----||   
|--2--2---2-25---|--2--2--|0--0----0-00----|4-44----2-22-----||   
|0-----0-3-------|0-----0-|--------3-33----|2-22-------------||    

riff 1                  B part
|----------------|    |----------------|----------------|----------------| 
|----------------|    |-----------3----|3---------------|-----------3----|   
|----------------|    |--------5--2----|0---------------|--------5--2----| 
|----------------|    |5--2-------0----|2---------------|5--2-------0----|   
|-020--0-457--7-7|    |5--2----5-------|3--------020--0-|5--2----5-------| 
|3---23--000--0-0| 4x |3--0------------|--------3---23--|3--0------------| 

|----------------|----------------|----------------|----------------| 
|3---------------|-----------3----|3---------------|-----------3----| 
|0---------------|--------5--2----|0---------------|--------5--2----| 
|2---------------|5--2-------0----|2---------------|5--2-------0----| 
|3--------020--0-|5--2----5-------|3--------020--0-|5--2----5-------| 
|--------3---23--|3--0------------|--------3---23--|3--0------------| 

|----------------|----------------|| 
|3---------------|----------------|| 
|0-------4---2---|--------7-5-4-2-||
|2-------4---2---|2---------------||
|3-------2---0---|2-------9-7-5-3-||
|3-------2---0---|0---------------||

riff 2 
|---------------|---------------|---------------|---------------| 
|---------------|---------------|---------------|---------------| 
|---------------|---------------|---------------|---------------| 
|---------------|---------------|---------------|---------------| 
|-----------5-7-|---------------|-----------5-7-|---------------| 
|3-3-5-23-0-----|7-7-5-75--3----|3-3-5-23-0-----|7-7-5-75--3----| 

|---------------|---------------|---------------|---------------| 
|---------------|---------------|---------------|---------------| 
|---------------|---------------|---------------|---------------| 
|---------------|---------------|---------------|---------------| 
|-----------5-7-|---------------|-----------5-7-|---------------| 
|3-3-5-23-0-----|7-7-5-75--3----|3-3-5-23-0-----|7-7-5-75--3----| 

             
|---------------|---------------|-------||  
|---------------|---------------|-------||  
|---------------|---------------|7-5-4-2||  
|---------------|---------------|-------||  
|-----------5-7-|---------------|9-7-5-3||  
|3-3-5-23-0-----|7-7-5-75--3----|-------|| 

fine
|----------------------------------||
|----------------------------------||
|7-5-4-22--------------------------||
|-------2---------20---------------||
|9-7-5-30--------0----0-457--------||
|---------------3---23----0--------||

form: intro|A|riff1|B|A|riff1|B|solo riff1(6x)|solo riff2|A|riff1|B|fine|
SMAK -"LP Crna Dama" 
Tap to rate this tab
# A B C D E F G H I J K L M N O P Q R S T U V W X Y Z