Song name
# A B C D E F G H I J K L M N O P Q R S T U V W X Y Z

Smak - Ljudi Nije Fer tab

/=slide up
\=slide down
p=pull of
h=hammer on
^=band
r=release
t=triplet
"=32nd note
x=pause

  riff                                                                2x 
e ---------|---2--|---2--|---------|------|------|------|------|------||
B ---------|---3--|---3--|---------|---0--|---0--|------|------|------||
G ---------|---2--|---2--|---------|---2--|---2--|------|---0--|---0--||
D -----0---|0-----|0-----|-----0---|---2--|---2--|------|---2--|---2--||
A -023--2--|------|------|-023--2--|0-----|0-----|02-0--|---2--|---2--||
E 3-------3|------|------|3-------3|------|------|--3-32|0-----|0-----||


A part
|------|------|------|------|1-11-1|1-11-1|0-00-0|------|------|------|
|------|------|------|1-10-0|3-33-3|3-33-3|1-11-1|------|------|------|
|------|0-00-0|0-00-0|0-00-0|2-22-2|2-22-2|2-22-2|0-02-2|0-00-0|0-00-0|
|0-00-0|2-22-2|2-22-2|2-20-0|0-00-0|0-00-0|2-22-2|0-00-0|2-22-2|2-22-2|
|2-20-0|2-22-2|2-22-2|3-32-2|------|------|0-00-0|2-20-0|2-22-2|2-22-2|
|3-32-2|0-00-0|0-00-0|---3-3|------|------|------|3-32-2|0-00-0|0-00-0|

|------|1-11-1|1-11-1|------|1-11-1|1-11-1|------|------|------|
|1-10-0|3-33-3|3-33-3|1-10-0|3-33-3|3-33-3|------|1-11-0|------|
|0-00-0|2-22-2|2-22-2|0-00-0|2-22-2|2-22-2|------|2-22-2|------|
|2-20-0|0-00-0|0-00-0|2-20-0|0-00-0|0-00-0|0-00-0|2-22-2|------|
|3-32-2|------|------|3-32-2|------|------|2-20-0|0-00-0|------|
|---3-3|------|------|---3-3|------|------|3-32-2|------|------|

|------|------|------||
|------|------|------||
|------|0-00-0|0-00-0||
|0-00-0|2-22-2|2-22-2||
|2-20-0|2-22-2|2-22-2||
|3-32-2|0-00-0|0-00-0||


B part                                                  2x
|3-33-3|1-11-1|0-00-0|0-00-0|0-00-0|2-22-2|0-00-0|0-00-0||
|0-00-0|3-33-3|1-11-1|1-11-1|1-11-1|3-33-3|0-00-0|0-00-0||
|0-00-0|2-22-2|0-00-0|0-00-0|2-22-2|2-22-2|0-00-0|0-00-0||
|0-00-0|0-00-0|2-22-2|2-22-2|2-22-2|2-22-2|2-22-2|2-22-2||
|2-22-2|------|3-33-3|3-33-3|0-00-0|------|2-22-2|2-22-2||
|3-33-3|------|------|------|------|------|0-00-0|0-00-0||


B2 part
|3-33-3|1-11-1|0-00-0|0-00-0|0-00-0|2-22-2|0-00-0|0-00-0| 
|0-00-0|3-33-3|1-11-1|1-11-1|1-11-1|3-33-3|0-00-0|0-00-0| 
|0-00-0|2-22-2|0-00-0|0-00-0|2-22-2|2-22-2|0-00-0|0-00-0| 
|0-00-0|0-00-0|2-22-2|2-22-2|2-22-2|2-22-2|2-22-2|2-22-2| 
|2-22-2|------|3-33-3|3-33-3|0-00-0|------|2-22-2|2-22-2| 
|3-33-3|------|------|------|------|------|0-00-0|0-00-0| 


|3-33-3|1-11-1|0-00-0|0-00-0|0-00-0|2-22-2|------|------|
|0-00-0|3-33-3|1-11-1|1-11-1|1-11-1|3-33-3|------|------|
|0-00-0|2-22-2|0-00-0|0-00-0|2-22-2|2-22-2|--0--2|--0---| 
|0-00-0|0-00-0|2-22-2|2-22-2|2-22-2|2-22-2|-2--4-|-2-42-| 
|2-22-2|------|3-33-3|3-33-3|0-00-0|------|3--5--|3----0| 
|3-33-3|------|------|------|------|------|------|------|


|------|------|0-----|------|0
|------|------|0-----|------|0
|------|------|0-----|------|0
|--02--|0-----|2-----|------|2
|02---0|-2-0--|2-----|------|2
|----3-|--2-32|0-----|------|0



form: riff|A|B|riff|A|B|riff|A|B|B|B2|


"SMAK-SP LJUDI NIJE FER/EL DUMO"
Tap to rate this tab
# A B C D E F G H I J K L M N O P Q R S T U V W X Y Z