Song name
# A B C D E F G H I J K L M N O P Q R S T U V W X Y Z

Smak - Strailo tab

/=slide up
\=slide down
p=pull of
h=hammer on
^=band
r=release
t=triplet
"=32nd note
x=pause

(D tune)

  A part
d -9-12--9tp7t-------------|----------------|----------------|---------------|
A --------------10---8p7---|----------------|----------------|---------------|
F --7--7----------------9-7|----------------|----------------|---------------|
C 9-----------7t----7------|----5-------5---|----5-------5---|---------------|
G ----------------10-----9-|-7-7--5-7--7--5-|7--7--5-7--7--5-|10--1012--1012-|
D -------------------------|0----7-0-----7-0|-----7-0-----7-0|--------10-----|

------------|----------------|----------------||
------------|----------------|----------------||
------------|----------------|----------------||
9--912------|----5-------5---|----5-------5---||
--------1012|7--7--5-7--7--5-|7--7--5-7--7--5-||
------10----|-----7-0-----7-0|-----7-0-----7-0||

B part

|12--9-"6"-3-|----------------|----------------|----------------|----------------||
|------------|----------------|----------5-----|----------------|----------------||
|------------|--0-------2-----|--5-------------|--0-------2-----|--5-------7-----||
|--12-9---6-3|----------------|---------5------|----------------|----------------||
|------------|-2-------3------|-7------3-------|-2-------3------|-7-------8------||
|------------|0-------1-------|5---------------|0-------1-------|5-------6-------||

SMAK-"Bioskop Fox"
Tap to rate this tab
# A B C D E F G H I J K L M N O P Q R S T U V W X Y Z