Smak - Zikino Kolo tab

Zikino Kolo version by Smak and their guitarist Radomir Tocak. Not easy to play at all, 
you need some really good speed for this.

Part 1
|----------------------------------------------------------------------------------|
|------9-10h11p10----9-10-12-10h11p10----9-10-12-10h11p10-8-----8------------------|
|-9-11------------9-------------------9----------------------11---9-7h8p7-7-9-----*|
|----------------------------------------------------------------------------------|
|---------------------------------------------------------------------------------*|
|----------------------------------------------------------------------------------|

Part 2
|----------------------------------------------------------------------------------|
|----------------------------------------------------------------------------------|
|-9h10p9-8------------------------------9h10p9-8---------8-------------------------|
|----------10-10-10h11p10-10-9-7h8p7-7------------10-9-10---10h11p10-9-7h8p7-7-----|
|-------------------------------------7----------------------------------------7---|
|----------------------------------------------------------------------------------|

 ----------------------------------------------------------------|
 -------7h8p7----------------------------------------------------|
 -9-8-9-------9-8----------8h9p8----------------8h9--------------|
 ------------------10-9-10-------10-9--9h10p9-9------9-9h10p9-9--|
 ----------------------------------------------------------------|
 ----------------------------------------------------------------|

|----------------------------------------------------------------------------------|
|----------------------------------------------------------------------------------|
|-9h10p9-8------------------------------9h10p9-8---------8-------------------------|
|----------10-10-10h11p10-10-9-7h8p7-7------------10-9-10---10h11p10-9-7h8p7-7-----|
|-------------------------------------7----------------------------------------7---|
|----------------------------------------------------------------------------------|

 ----------------------------------------------------------------|
 ---7-8-7h8p7----------------------------------------------------|
 -9-----------9-8----------8h9p8----------------8h9--------------|
 ------------------10-9-10-------10-9--9h10p9-9------9-9h10p9-9--|
 ----------------------------------------------------------------|
 ----------------------------------------------------------------|


  Part 3
|------------------------------------------------------------------------------------|
|------------------------------------------------------------------------------------|
|-----6-7h8p7-7----6h7p6---------------6-7h8p7-7----6h7p6----------------6-7h8p7-7---|
|-7-9-----------7--------7h8p7-7---7-9-----------7--------7h8p7-7----7-9-----------7-|
|--------------------------------7--------------------------------7------------------|
|------------------------------------------------------------------------------------|

 -------------------------------------------|
 -------------------------------------------|
 -6h7p6-------6-------------8h9------------*|
 -------9-7-9---7--9h10p9-9-----9-9h10p9-9--|
 ------------------------------------------*|
 -------------------------------------------|

 Now play part 2, and the again part 1


  Part 4
|-----4-----------|
|-5-7---5h6p5-5---|
|---------------4-| repeat this 4 times
|-----------------|
|-----------------|
|-----------------|


  Part 5
|--------------------------------|---------------------------------|
|-------------7--5---------------|---------------------------------|
|---4-6-7-6-7------7-6-4h5p4-4---|3x---7-6-7-4h5p4-4----4-4h5p4-4-*|
|-7------------------------------|-------------------7-------------|
|------------------------------7-|--------------------------------*|
|--------------------------------|---------------------------------|


  Park 6
|-------------------------------------------------------------------|
|-------------------------------------------------------------------|
|-8h9-6h7p6-6----6h7p6---------6--8h9-6h7p6-6----6h7p6-------------*|
|-------------7--------9-7---7----------------7--------9-7h8p7-7----|
|--------------------------7-------------------------------------7-*|
|-------------------------------------------------------------------|


 Part 7
|---------------------------------------------------------------|
|---------------------------------------------------------------|
|---------------------------------------------------------------|
|-7h8p7-6-7-9-6----4h5p4---4---6--7h8p7-6-7-9-6---4-4h5p4-4-----|
|---------------7--------7---7------------------7---------------|
|-----------------------------------------------------------7---|

 ---------------------------------------------------------------|
 ---------------------------------------------------------------|
 --------------------------------------------------------------*|
 -7h8p7-6-7-9-6----4h5p4---4---6--7h8p7-6-7-9-6---4-4h5p4-4-----|
 ---------------7--------7---7------------------7--------------*|
 ---------------------------------------------------------------|

 Now play part 2, and the again part 1


And that's the end of it. A very fast song...
Tap to rate this tab
 
# A B C D E F G H I J K L M N O P Q R S T U V W X Y Z