Smak - Zajdi Zajdi tab

tabbed by Bata

  Gtr I


|----------------------------------------------------------------------------------|
|----------------------------------------------------------------------------------|
|-------5/-12-12-12-----12-14-16-14----14h16p14p12-------12-14-14-16-12-14--11-12--|
|--------------------12-------------------------------12---------------------------|
|----------------------------------------------------------------------------------|
|----------------------------------------------------------------------------------|


|--------------------------------------------------------------------|
|--------------------------------------------------------------------|
|-12p11h12h14--12p119---9--9/14----14h16p14p12----12-14-16h17p16-----|
|--------------------------------------------------------------------|
|--------------------------------------------------------------------|
|--------------------------------------------------------------------|


|------------------------------|
|------------------------------|
|-16h17p14-12----11-14-11-12---|
|------------------------------|
|------------------------------|
|------------------------------|


|----------------------------------------------------------------------------------|
|----------------------------------------------------------------------------------|
|-12p11h12h14--12p119---9h11p97------------11-12----12-11-12-14-11h12p11----11-----|
|---------------------------------------12-14------------------------------14---12-|
|----------------------------------------------------------------------------------|
|----------------------------------------------------------------------------------|


|------------------------------|
|------------------------------|
|-------11-12-14-11-9----------|
|-12-14-------------------2----|
|-------------------------2----|
|-------------------------0----|


|-------------------------------------------------------------------------|
|-------------------------------------------------------------------------|
|-5-/12-12-12-----12-14-16-14--14h16p14p12-----12-14-14-16-12-14-11-12----|
|--------------12---------------------------12----------------------------|
|-------------------------------------------------------------------------|
|-------------------------------------------------------------------------|


|---------------------------------------------------------------------------------------|
|-------------12----15-13-12----12------------------------------------------------------|
|-12-11-12-14----14----------14----14-12-11---------------------------------------------|
|-------------------------------------------14--9-9-/14--14h16p14p12--12-14-16h17p16----|
|---------------------------------------------------------------------------------------|
|---------------------------------------------------------------------------------------|


|-------------------------------------------------------------------------------------|
|----------------------------------------12-13-15-13-12----12-------------------------|
|-16h17p14-12--11-14-11-12--12-11-12-14----------------14----14-12-11h12p11-----------|
|----------------------------------------------------------------------------14-12----|
|-------------------------------------------------------------------------------------|
|-------------------------------------------------------------------------------------|


|------------------------|
|------------------------|
|-------11-12-14-11-9----|
|-12-14------------------|
|------------------------|
|------------------------|


|------------------------------------------------------------------------|
|------------------------------------------------------------------------|
|------------------------------------------------------------------------|
|------------------------------------------------------------------------|
|-3-/10-10-10-----10-12-14-12--12h14p12p10-----10-12-12-14-10-12-9-10----|
|--------------10---------------------------10---------------------------|


|--------------------------------------------------------------------------------|
|--------------------------------------------------------------------------------|
|--------------------------------------------------------------------------------|
|------------9-10-9--------------------------------------------------------------|
|-10-9-10-12--------12-10-12-10-9-----7-12-12h14p12p10--10-12-14--14h15p14p12----|
|---------------------------------12---------------------------------------------|


|----------------------------------------------------------------------------------|
|----------------------------------------------------------------------------------|
|----------------------------------------------------------------------------------|
|------------------------9---------------------------------------------------------|
|-10-12-9-10--10-9-10-12---12-10-9--------------9-10--10-9-10-12-9h10p9----9-------|
|----------------------------------12--0--10-12-------------------------12---10----|


|-------------------------|
|-------------------------|
|-------------------------|
|-------------------------|
|-------9-10-12-10-9-7----|
|-10-12-------------------|

ostatak pesme ostavljam vama, pa improvizujte malo !!!


Tablature Legend
----------------
 h   - hammer-on
 p   - pull-off
 b   - bend
 pb  - pre-bend
 r   - bend release (if no number after the r, then release immediately)
 /  - slide into or out of (from/to "nowhere")
 s   - legato slide
 S   - shift slide
     - natural harmonic
[n]  - artificial harmonic
n(n) - tapped harmonic
 ~   - vibrato
 tr  - trill
 T   - tap
 TP  - trem. picking
 PM  - palm muting
n/  - tremolo bar dip; n = amount to dip
 n  - tremolo bar down
 n/  - tremolo bar up
/n  - tremolo bar inverted dip
 =   - hold bend; also acts as connecting device for hammers/pulls
 <>  - volume swell (louder/softer)
 x   - on rhythm slash represents muted slash
 o   - on rhythm slash represents single note slash+

All props to: Bata
Tap to rate this tab
 
# A B C D E F G H I J K L M N O P Q R S T U V W X Y Z