Song name
# A B C D E F G H I J K L M N O P Q R S T U V W X Y Z

Smak - Ulazak U Harem tab

SMAK-ULAZAK U HAREM                                 

                                   
E||--------------------------|--------------------------|
B||--------------------------|--------------------------|
G||--2--3--2--1--2--3--2--1--|--2--3--2--1--2--3--2--1--|
D||--------------------------|--------------------------|
A||--------------------------|--------------------------|
E||--------------------------|--------------------------|




--------------------------------------------------|--------------------------|
--------------------------------------------------|--------------------------|
--3p2-1-3p2-1-3p2-1-3p2-1-3p2-1-3p2-1-3p2-1-3p2-1-|--3p2-1-3p2-1-3p2-1-3p2-1-|
--------------------------------------------------|--------------------------|
--------------------------------------------------|--------------------------|
--------------------------------------------------|--------------------------|




---------------------------|-------------------------|------------------|
--------2------------2-----|---------2-2-------------|------------------|
--2-----2-----2-2----2-----|--2-2----2-2----2--------|------------------|
-----2-----2------2-----2--|------2------2--2--------|------------------|
---------------------------|----------------0--------|------------------|
---------------------------|-------------------------|------------------|




----------|-----------------------------|--------------------------------|
----------|-----------------------------|--------------------------------|
----------|--0h7h9-9--9--9--9--9--9--9--|--9r9-7-6--6--6--9p6-3-2--2--2--|
----------|-----------------------------|--------------------------------|
----------|-----------------------------|--------------------------------|
----------|-----------------------------|--------------------------------|




--------------------------------|------------------------------|
--------------------------------|------------------------------|
--7/9-7-6--6--6--9p6-3-2--2--2--|--3p2-1-2--2--2--3p2-1-2------|
--------------------------------|------------------------------|
--------------------------------|------------------------------|
--------------------------------|------------------------------|




------------------|----------|--------------------------------------|
------------------|----------|--------------------------------------|
------------------|----------|--0h12h14-14--14--14--14--14--14--14--|
------------------|----------|--------------------------------------|
------------------|----------|--------------------------------------|
------------------|----------|--------------------------------------|




-----------------------------------------|---------------------------------|
-----------------------------------------|---------------------------------|
--14r14-12-12--12--12--14p12-10-9--9--9--|--10p9-7-6--6--6--7p6-3-2--2--2--|
-----------------------------------------|---------------------------------|
-----------------------------------------|---------------------------------|
-----------------------------------------|---------------------------------|




--------------------------------|-----------------------|------------------|
--------------------------------|-----------------------|------------------|
--7/9-7-6--6--6--7p6-3-2--2--2--|--3p2-1-2--------------|------------------|
--------------------------------|-----------------------|------------------|
--------------------------------|-----------------------|------------------|
--------------------------------|-----------------------|------------------|




--0h10-12-12--12--12--12--12--12--12--|--12r12-10-9--9--9--10p9-6-5--5--5--|
--------------------------------------|------------------------------------|
--------------------------------------|------------------------------------|
--------------------------------------|------------------------------------|
--------------------------------------|------------------------------------|
--------------------------------------|------------------------------------|




--10/12-10-9--9--9--10p9-6-5--5--5--|--6p5-4-5--5--5--|--6p5-4-5--------------|
------------------------------------|-----------------|-----------------------|
------------------------------------|-----------------|-----------------------|
------------------------------------|-----------------|-----------------------|
------------------------------------|-----------------|-----------------------|
------------------------------------|-----------------|-----------------------|




------------------|--9-----------------------------------------------------|
------------------|-----11--10--11--10--9--10--9------9--10----------------|
------------------|-------------------------------10-----------------------|
------------------|--------------------------------------------------------|
------------------|--------------------------------------------------------|
------------------|--------------------------------------------------------|




--9-9-----------------------------------------------------------------------|
------11-11-10-10-11-11-10-10-9-9-10-10-9-9-------9-9-10p9h10---------------|
--------------------------------------------10-10---------------------------|
----------------------------------------------------------------------------|
----------------------------------------------------------------------------|
----------------------------------------------------------------------------|




--9--------------------------------------------------------------------|
----11-10-11-10-9-10-9----9-10-----10-10-10----10-10-10----10-10-10----|
-----------------------10-------9-----------9-----------9-----------9--|
-----------------------------------------------------------------------|
-----------------------------------------------------------------------|
-----------------------------------------------------------------------|




--9--------------------------------------------------------------------|
----11-10-11-10-9-10-9----9-10-----10-10-10----10-10-10----10-10-10----|
-----------------------10-------9-----------9-----------9-----------9--|
-----------------------------------------------------------------------|
-----------------------------------------------------------------------|
-----------------------------------------------------------------------|




-------------------------|------------------|-----------------------|
--10--8--7---------------|------------------|--10p8-8\7-7-----------|
------------9--7--6------|------------------|--------------9--7--6--|
-------------------------|------------------|-----------------------|
-------------------------|------------------|-----------------------|
-------------------------|------------------|-----------------------|




--------------------------|--------------------------|
--------------------------|--------------------------|
--9--7--6--9--7--6--7--6--|--9--7--6--9--7--6--7--6--|
--------------------------|--------------------------|
--------------------------|--------------------------|
--------------------------|--------------------------|




--------------------------------------------------|
--------------------------------------------------|
--9p7-6-9p7-6-9p7-6-9p7-6-9p7-6-9p7-6-9p7-6-9p7-6-|
--------------------------------------------------|
--------------------------------------------------|
--------------------------------------------------|




--------------------------------------------------|-------------------|
--------------------------------------------------|-------------------|
--9p7-6-9p7-6-9p7-6-9p7-6-9p7-6-9p7-6-9p7-6-9p7-6-|--5----------------|
--------------------------------------------------|-------------------|
--------------------------------------------------|-------------------|
--------------------------------------------------|-------------------|




-------------------|------------------|
-------------------|------------------|
-------------------|------------------|
--7----------------|------------------|
--0----------------|------------------|
-------------------|------------------|




--------------------------------------------------|
--3p2p0-------3p2p0-------3p2p0-------3p2p0-------|
--------3p2p0-------3p2p0-------3p2p0-------3p2p0-|
--------------------------------------------------|
--------------------------------------------------|
--------------------------------------------------|




--------------------------------------------------|
--3p2p0-------3p2p0-------3p2p0-------3p2p0-------|
--------3p2p0-------3p2p0-------3p2p0-------3p2p0-|
--------------------------------------------------|
--------------------------------------------------|
--------------------------------------------------|




--------------------------------------------------|
--------0h2h3-------0h2h3-------0h2h3-------0h2h3-|
--0h2h3-------0h2h3-------0h2h3-------0h2h3-------|
--------------------------------------------------|
--------------------------------------------------|
--------------------------------------------------|




--------------------------------------------------|----------------|
--------0h2h3-------0h2h3-------0h2h3-------0h2h3-|----------------|
--0h2h3-------0h2h3-------0h2h3-------0h2h3-------|--0--2----------|
--------------------------------------------------|----------------|
--------------------------------------------------|----------------|
--------------------------------------------------|----------------|




------------------|------------------------------------|
------------------|------------------------------------|
------------------|--12--9h12p9-0--9--12--9h12p9-0--9--|
------------------|------------------------------------|
------------------|------------------------------------|
------------------|------------------------------------|




------------------------------------|----------------------------------------|
------------------------------------|----------------------------------------|
--12--9h12p9-0--9--12--9h12p9-0--9--|--12-9-0-12-9-0-12-9-0-12-9-0-12-9-0-12-|
------------------------------------|----------------------------------------|
------------------------------------|----------------------------------------|
------------------------------------|----------------------------------------|




---------------------------------------|
---------------------------------------|
--9-0-12-9-0-12-9-0-12-9-0-12-9-0-12-9-|
---------------------------------------|
---------------------------------------|
---------------------------------------|




----------------------------------------------------------|
----------------------------------------------------------|
--12p9p0-12p9p0-12p9p0-12p9p0-12p9p0-12p9p0-12p9p0-12p9p0-|
----------------------------------------------------------|
----------------------------------------------------------|
----------------------------------------------------------|




----------------------------------------------------------|
----------------------------------------------------------|
--0h9h12-0h9h12-0h9h12-0h9h12-0h9h12-0h9h12-0h9h12-0h9h12-|
----------------------------------------------------------|
----------------------------------------------------------|
----------------------------------------------------------|




----------------------------------------------------------|--------------------|
----------------------------------------------------------|--------------------|
--0h9h12-0h9h12-0h9h12-0h9h12-0h9h12-0h9h12-0h9h12-0h9h12-|--12----------------|
----------------------------------------------------------|--------------------|
----------------------------------------------------------|--------------------|
----------------------------------------------------------|--------------------|




--------------------|------------------|---------------------------||
--------------------|------------------|------11p10----------------||
--0h2---------------|------------------|--12--------12--11--10--9--||
--------------------|------------------|---------------------------||
--------------------|------------------|---------------------------||
--------------------|------------------|---------------------------||
Tap to rate this tab
# A B C D E F G H I J K L M N O P Q R S T U V W X Y Z