Song name
# A B C D E F G H I J K L M N O P Q R S T U V W X Y Z

Small Arms Dealer - Pagansong tab

----------------------------------------------------------------------------
			     Pagansong - Small Arms Dealer


intro gtr 1             intro gtr 2
e|--------------------|----------------------------------------------------|
B|--------------------|----------------------------------------------------|
G|-----------7--------|----------------------------------------------------|
D|--0--0--0----0--0---|--7-------------------------------------------------|
A|--------------------|--5--7--5-------------------------5-5-5-5-5---------|
E|--------------------|-----5--3-------------------------3-3-3-3-2---------|

   verse            chorus
e|---------------|---------------------------------------------------------|
B|---------------|---------------------------------------------------------|
G|-----4-----7---|--7------------------------------------------------------|
D|--2--4--5--7---|--7---------7---------5-------------------5-5-5-5-5-5----|
A|--2--2--5--5---|--5---------7---------5-------------------5-5-5-5-5-5----|
E|--0-----3------|------------5---------3-------------------3-3-3-2-2-2----|

   prechorus      
e|--------------|                                 |--------------------|
B|--------------|    bass part                    |--------------------|
G|--------------|  |---------------------------|  |--------------------|
D|--------------|  |---------------------------|  |--5p4-4-------------|
A|--------------|  |------------5-4------------|  |--------------------|
E|--2~----------|  |-2----5----------3---------|  |--------------------|

  ending
e|-------------------------------------------------------------------------|
B|-------------------------------------------------------------------------|
G|-------------------------------------------------------------------------|
D|-------------------------------------------------------------------------|
A|-5-5-5-5-5-5-5-5-2-2-2-2--2~--4~--5~--7~---5-----------------------------|
E|-3-3-3-3-2-2-2-2-0-0-0-0-------------------3-----------------------------|


e|-------------------------------------------------------------------------|
B|-------------------------------------------------------------------------|
G|-------------------------------------------------------------------------|
D|-------------------------------------------------------------------------|
A|-------------------------------------------------------------------------|
E|-------------------------------------------------------------------------|


e|-------------------------------------------------------------------------|
B|-------------------------------------------------------------------------|
G|-------------------------------------------------------------------------|
D|-------------------------------------------------------------------------|
A|-------------------------------------------------------------------------|
E|-------------------------------------------------------------------------|


www.smallarmsdealer.net
************************************

| /   slide up
| \   slide down
| h   hammer-on
| p   pull-off
| ~   vibrato
| +   harmonic
| x   Mute note
| b   Bend
| pb  Pre-bend
| br  Bend release
| pbr Pre-bend release
| brb Bend release bend

************************************
Tap to rate this tab
# A B C D E F G H I J K L M N O P Q R S T U V W X Y Z