Song name
# A B C D E F G H I J K L M N O P Q R S T U V W X Y Z

Small Arms Dealer - Augie Doggie tab

intro
|--------------------------------------------------|
|------9---9-------9---9------9---9----------------|
|--------------------------------------------------|
|-9-9----------9-9--------7-7-------7-7-6-7-6-7----|
|--------------------------------------------------|
|--------------------------------------------------|


|----------------------------------------------------------|
|----------------------------------------------------------|
|----------------------------------------------------------|
|-9---------7-------6--------14---------11-----9-------11--|
|----------------------------------------------------------|
|----------------------------------------------------------|


|----------------------------------------------------------------|
|----------------------------------------------------------------|
|----------------------------------------------------------------|
|------------------------------/6----4-6/7-6~----2-4-6-2/4-2~----|
|-/6----4-6/7-6~----2-4-6-2~-------------------------------------|
|----------------------------------------------------------------|

verse
|---------------------|
|---------------------|
|-6-------------------|
|-6----2----7----4----|
|-4----2----7----4----|
|------0----5----2----|

chorus
|-----------------------------|
|-----------------------------|
|-6----4----------------------|
|-6----4----7----7----444-222-|
|-4----2----7----7----444-222-|
|-----------5----5----222-000-|




www.smallarmsdealer.net
Tap to rate this tab
 
# A B C D E F G H I J K L M N O P Q R S T U V W X Y Z