Song name
# A B C D E F G H I J K L M N O P Q R S T U V W X Y Z

Small Brown Bike - Unsung Zero tab

Small Brown Bike - Unsung Zero

Pretty sure the band plays it differently, but this should be a good
approximation. Note the Drop D tuning.

Intro     (repeat this)       Verse (played twice)
E|--------|------------------|------------------------------------|
B|-4------|------------------|-44-------------44------------------|
G|-5----8-|-5---8-5-10-8-----|-55------8--10--55------12--10------|
D|-5----6-|-x---x-x-x--x-----|-55--113-6--8---55--113-10--8-------|
A|-3----6-|-3---6-3-8--6-----|-33--113-6--8---33--113-10--8-------|
D|------6-|[1111111133333333]|-----113-6--8-------113-10--8-------|
[.] denote powerchords that are also played here

                      first time     second time
E|-------------------|--------------|-------------------------|
B|-------------------|--------------|-------------------------|
G|-------------------|-8-108--8-108-|-8--8--------------------|
D|-6--8--10--1--6--8-|8-8---88-8---8|-8--8--------------------|
A|-6--8--10--1--6--8-|--------------|-6--6--------------------|
D|-6--8--10--1--6--8-|--------------|-6--5--------------------|

 Chorus
E|----------------------------------------------------------|
B|----------------------------------------------------------|
G|-------8--8--------8--8--------------8--86--611-1118------|
D|-3--1--8--8--3--1--8--8--3--1--6--3--x--xx--xx--x-x-------|
A|-3--1--6--6--3--1--6--6--3--1--6--3--6--64--49--9-16------|
D|-3--1--6--5--3--1--6--5--3--1--6--3-----------------------|

 Verse                                              (repeat this)
E|--------------------------------------------------|--------------|
B|-44-------------44--------------------------------|--------------|
G|-55------8--10--55------12--10--------------------|-8-108--8-108-|
D|-55--113-6--8---55--113-10--8---6--8--10--1--6--8-|8-8---88-8---8|
A|-33--113-6--8---33--113-10--8---6--8--10--1--6--8-|--------------|
D|-----113-6--8-------113-10--8---6--8--10--1--6--8-|--------------|

 Bridge (there's some cool guitarwork here, but I just tabbed the chords)
E|-----------------------------------------------------------------------|
B|-----------------------------------------------------------------------|
G|-6--6--6--6--6--6--6--6--6--6--6--6--6--6--6--6---8-108--8-108---------|
D|-6--6--6--4--6--6--6--4--6--6--6--4--6--6--6--4--8-8---88-8---8--------|
A|-4--3--4--4--4--3--4--4--4--3--4--4--4--3--4--4------------------------|
D|-------4--4--------4--4--------4--4--------4--4------------------------|

 Outro
E|------------------------------------------------------------------------|
B|------------------------------------------------------------------------|
G|-6-5-5---6-5-5---6-5-5---6-5-5---6-5-----6-5-----6-8-----6-8------------|
D|-6-5-3---6-5-3---6-5-3---6-5-3---x-x-3-3-x-x-3-3-x-x-333-x-x-33333-33---|
A|-4-3-3---4-3-3---4-3-3---4-3-3---4-3-3-3-4-3-3-3-4-6-333-4-6-33333-33---|
D|-----3-------3-------3-------3-------3-3-----3-3-----333-----33333-33---|
Tap to rate this tab
 
# A B C D E F G H I J K L M N O P Q R S T U V W X Y Z