Song name
# A B C D E F G H I J K L M N O P Q R S T U V W X Y Z

Small Brown Bike - Cannons And Tanks tab

-------------------------------------------------------------------------------
		    THE CANNONS AND TANKS - Small Brown Bike
-------------------------------------------------------------------------------
Tabbed by: Matt Thomas
Email: startstatik@gmail.com

Tuning: Eb,Ab,Db,Gb,Bb,eb

   Pretty easy song to play, some parts might seem a little off beat but you should be 
to pick it up quickly. Enjoy.

   Exact strum pattern not shown right here.

   Intro - Guitar 1
eb|-----------------------|
Bb|-----------------------|
Gb|-14-13--11-9--7-6--4-6-|
Db|-----------------------|
Ab|-12-11--9--7--5-4--2-4-|
Eb|-----------------------|

   Intro - Guitar 1 (Drums come in)
eb|--------------------------------------------------------------|
Bb|--------------------------------------------------------------|
Gb|-14-14-14-14-14-14-14-14-14--13-13--111111111111111111-13-13--|
Db|--------------------------------------------------------------|
Ab|-12-12-12-12-12-12-12-12-12--11-11--9-9-9-9-9-9-9-9-9--11-11--|
Eb|--------------------------------------------------------------|

eb|--------------------------------------------------------------|
Bb|--------------------------------------------------------------|
Gb|-7-7-7-7-7-7-7-7-7--13-13--4-4-4-4-4-4-6-6-6--13-13-----------|
Db|--------------------------------------------------------------|
Ab|-5-5-5-5-5-5-5-5-5--11-11--2-2-2-2-2-2-4-4-4--11-11-----------|
Eb|--------------------------------------------------------------|

   Intro - Guitar 2
eb|------------------------|
Bb|------------------------|
Gb|------------------------|
Db|-4-4-4-4-4-4-4-4-4--X-X-|  x 8
Ab|-4-4-4-4-4-4-4-4-4--X-X-|
Eb|-2-2-2-2-2-2-2-2-2--X-X-|

   Break - Guitar 2
eb|------------------------|
Bb|------------------------|
Gb|------------------------|
Db|-4--4-------------------|
Ab|-4--4-------------------|
Eb|-2--2-------------------|

   Verse - Guitar 1 (Same strum pattern as intro)
eb|----------------------------------------|
Bb|----------------------------------------|
Gb|-4-------6-------7-------4--------------|
Db|---x 16----x 16----x 16----x 16---------|
Ab|-2-------4-------5-------2--------------|
Eb|----------------------------------------|

eb|----------------------------------------|
Bb|----------------------------------------|
Gb|-4-------6-------4--------7------9------|
Db|---x 16----x 16-----x 16----x 8-----x 8-|
Ab|-2-------4-------2--------5------7------|
Eb|----------------------------------------|

   Break - Guitar 1
eb|-------------------------|
Bb|-------------------------|
Gb|-11--13---7-------9------|
Db|-------------x 8-----x 8-|
Ab|-9---11---5-------7------|
Eb|-------------------------|

   Break - Guitar 2
eb|-------------------------|
Bb|-------------------------|
Gb|-11--6----7-------9------|
Db|-11--6----7--x 8-----x 8-|
Ab|-9---4----5-------7------|
Eb|-------------------------|

   Break - Guitar 2
eb|-------------------------|
Bb|-------------------------|
Gb|-------------------------|
Db|-4--4-4------------------|
Ab|-4--4-4--x 4-------------|
Eb|-2--2-2------------------|

   Verse - Guitar 1 (Same strum pattern as intro)
eb|----------------------------------------|
Bb|----------------------------------------|
Gb|-4-------6-------7-------4--------------|
Db|---x 16----x 16----x 16----x 16---------|
Ab|-2-------4-------5-------2--------------|
Eb|----------------------------------------|

eb|----------------------------------------|
Bb|----------------------------------------|
Gb|-4-------6-------4--------7------9------|
Db|---x 16----x 16-----x 16----x 8-----x 8-|
Ab|-2-------4-------2--------5------7------|
Eb|----------------------------------------|

   Break - Guitar 1
eb|-------------------------|
Bb|-------------------------|
Gb|-11--13---7-------9------|
Db|-------------x 8-----x 8-|
Ab|-9---11---5-------7------|
Eb|-------------------------|

   Break - Guitar 2
eb|-------------------------|
Bb|-------------------------|
Gb|-11--6----7-------9------|
Db|-11--6----7--x 8-----x 8-|
Ab|-9---4----5-------7------|
Eb|-------------------------|

   Break - Guitar 2
eb|--------------------------------------------------------------------|
Bb|--------------------------------------------------------------------|
Gb|--------------------------------------------------------------------|
Db|-7-------------[7--7-7-7-7-7--7-7-7-7--------------------------]----|
Ab|-7-(let ring)--[7--7-7-7-7-7--7-7-7-7--(strum this until Outro)]----|
Eb|-5-------------[5--5-5-5-5-5--5-5-5-5--------------------------]----|

   Break - Guitar 1
eb|-------------------------------------|
Bb|-------------------------------------|
Gb|-------------------------------------|
Db|-/14--14-14-14-14-14\12-12\11-11-----|
Ab|---------------------------------x 2-|
Eb|-/12--12-12-12-12-12\10-10\9--9------|

eb|-----------------------------------------------|
Bb|-----------------------------------------------|
Gb|-----------------------------------------------|
Db|-/11-111111111\9-9\7-7--/9-9-9-9-9-9\7-7-7-7-7-|
Ab|-----------------------------------------------|
Eb|-/9--9-9-9-9-9\7-7\5-5--/7-7-7-7-7-7\5-5-5-5-5-|

eb|-h9--7h9h7--12-9--14--12p|
Bb|-------------------------|
Gb|-------------------------|
Db|-------------------------| x 8  (Make sure to pull off the 12p9 smoothly)
Ab|-------------------------|
Eb|-------------------------|

   Outro - Guitar 1
eb|--------------------------------------------------------------|
Bb|--------------------------------------------------------------|
Gb|-14-14-14-14-14-14-14-14-14--13-13--111111111111111111-13-13--|
Db|--------------------------------------------------------------|
Ab|-12-12-12-12-12-12-12-12-12--11-11--9-9-9-9-9-9-9-9-9--11-11--|
Eb|--------------------------------------------------------------|

eb|--------------------------------------------------------------|
Bb|--------------------------------------------------------------|
Gb|-7-7-7-7-7-7-7-7-7--13-13--4-4-4-4-4-4-6-6-6--13-13-----------|
Db|--------------------------------------------------------------|
Ab|-5-5-5-5-5-5-5-5-5--11-11--2-2-2-2-2-2-4-4-4--11-11-----------|
Eb|--------------------------------------------------------------|

   Outro - Guitar 2
eb|------------------------|
Bb|------------------------|
Gb|------------------------|
Db|-4-4-4-4-4-4-4-4-4--X-X-|  x 8
Ab|-4-4-4-4-4-4-4-4-4--X-X-|
Eb|-2-2-2-2-2-2-2-2-2--X-X-|

  End - Guitar 1 (Same strum pattern as intro)
eb|----------------------------------------|
Bb|----------------------------------------|
Gb|-4-------6-------7-------4--------------|
Db|---x 16----x 16----x 16----x 16---------|
Ab|-2-------4-------5-------2--------------|
Eb|----------------------------------------|

eb|----------------------------------------|
Bb|----------------------------------------|
Gb|-4-------6-------4--------7------9------|
Db|---x 16----x 16-----x 16----x 8-----x 8-|
Ab|-2-------4-------2--------5------7------|
Eb|----------------------------------------|

   End - Guitar's 1 and 2
eb|-------------------------|
Bb|-------------------------|
Gb|-------------------------|
Db|-4--4-4------------------|
Ab|-4--4-4--x 2-------------|
Eb|-2--2-2------------------|

| /  slide up
| \  slide down
| h  hammer-on
| p  pull-off
| ~  vibrato
| +  harmonic
| x  Mute note
===============================================================================
Tap to rate this tab
 
# A B C D E F G H I J K L M N O P Q R S T U V W X Y Z