Song name
# A B C D E F G H I J K L M N O P Q R S T U V W X Y Z

Small Brown Bike - Running Swimming And Sinking tab

Small Brown Bike - Running, Swimming and Sinking


From "Our Own Wars" out on No Idea Records (the best label in the universe)

Tabbed by Scot Thompson (hwm_fan@punkhardcore.net) 

/ = slide 
D-drop tuning 


Intro 
|--------------------| 
|--------------------| 
|-3--/5--/3-3--/5-/3-| 
|-x-/-x-/-x-x-/-x-/x-| 
|-1/--3/--1-1/--3/-1-| 
|--------------------| 

|--------------------| 
|--------------------| 
|-12--/8-7-----------| 
|-x--/-x-x-----------| 
|-10/--6-5-----------| 
|--------------------| 

Pre-verse 
|--------------------| 
|--------------------| 
|--------------------| 
|-3-1-5--------------| 
|-3-1-5--------------| 
|-3-1-5--------------| 

verse 
|--------------------| 
|--------------------| 
|-5-12-13-12---------| 
|--------------------| 
|-3-10-11-10---------| 
|--------------------| 

Chorus 
|--------------------| 
|--------------------| 
|-55-55-5-5----------| 
|-55-55-5-5-66-66-6-6| 
|-33-33-3-3-66-66-6-6| 
|-----------66-66-6-6| 

Interlude 
|--------------------| 
|--------------------| 
|-5-7-8-3------------| 
|-x-x-x-x------------| 
|-3-5-6-1------------| 
|--------------------| 

end at (fall to our knees....) 
|--------------------| 
|--------------------| 
|-3-5---7------------| 
|-3-5-5-7------------| 
|-1-3-5-5------------| 
|-----5--------------| 

solo at end 
|----------------------------------------| 
|----------------------------------------| 
|-15-13-12-10-12-13-8-10-8-8-15----------| 
|-x--x--x--x--x--x--x--x-x-x-x-----------| 
|-13-11-10-8--10-11-10-8-6-6-13----------| 
|----------------------------------------| 

|----------------------------------------| 
|----------------------------------------| 
|-15-13-12-10-12-13-8-10-8-8-7-----------| 
|-x--x--x--x--x--x--x--x-x-x-x-----------| 
|-13-11-10-8--10-11-10-8-6-6-5-----------| 
|----------------------------------------| 
last note 
|---------------------| 
|---------------------| 
|-------3-------------| 
|-------1-------------| 
|-------1-------------| 
|-------1-------------| 

If you truely love this band you'll figure the order out yourself. If you
haven't seen them live, do it as soon as you can. This tab is kind of a
combination of both guitars and how you can play it as one. If you don't
already have "Our Own Wars" or any other Small Brown Bike cd/lp's for that
mattter, your really missing out. If you have any corrections, complaints, or
requests, please email me. if your reading this you obviously have great taste
in music. Thanx for checking out my tab. 


Scot 
P.S. 
BUY RECORDS! KEEP VINYL ALIVE!
Tap to rate this tab
# A B C D E F G H I J K L M N O P Q R S T U V W X Y Z