Guitaretab - guitar tabs
Song name
# A B C D E F G H I J K L M N O P Q R S T U V W X Y Z

Small Faces - Talk To You tab

tabbed by Xander Ramage owmynose@hotmail.com

[intro]
e|-------|---0-xó-4-----|---0-x---------------|
B|-------|---0-x--------|---0-x---------------|
G|-------|---1-x-4--2-0-|---1-x---------------|
D|-2-0---|---2-x--------|---2-x----0----0-----|
A|-----2-|---2-x--------|---2-x-0h2--0h2--0h2-|
E|-------|-0-0-x--------|-0-0-x---------------|

[riff 1]
e|---0-x--4-----|---0-x--4-----|
B|---0-x--------|---0-x--------|
G|---1-x-4--4-2-|---1-x-4--4-2-|
D|---2-x--------|---2-x--------|
A|---2-x--------|---2-x--------|
E|-0-0-x--------|-0-0-x--------|

[riff 2]
e|---0-x---0-------0-----|
B|---0-x-------0-------0-|
G|---1-x-4---4---2---2---|
D|---2-x-----------------|
A|---2-x-----------------|
E|-0-0-x-----------------|

[riff 3]
e|---0-x---------|---x-0-------|
B|---0-x---------|---x-2-------|
G|---1-x---------|---x-2-------|
D|---2-x---------|-5-x-2-----0-|
A|---2-x---5---5-|-5-x-0-0h2---|
E|-0-0-x-7---5---|-3-x-0-------|

[riff 4]
e|---0-x---------|---x-0---------|
B|---0-x---------|---x-2---------|
G|---1-x---------|---x-2---------|
D|---2-x---------|-5-x-2---------|
A|---2-x---5---5-|-5-x-0-0h2ó0h2-|
E|-0-0-x-7---5---|-3-x-0---------|
[ Tab from: http://www.guitaretab.com/s/small-faces/153372.html ]
[riff 5]
e|---0-x-------2-----|
B|---0-x-------4-----|
G|---1-x-------4-----|
D|---2-x---2---4-----|
A|---2-x-2---0-2---0-|
E|-0-0-x-------x-----|

Intro
Riff 1

Riff 2                                      Riff 1
Itís been three months since I was last with you  Ha!

Riff 2                                      Riff 1
So many people try and stop me getting through

Riff 3
The doorman he just laughed (he just laughed)

Riff 4
But I donít want no autograph (autograph)

Riff 5
All I want to do is talk to you

Riff 1

Riff 2                                           Riff 1
Yíknow I couldnít stop you doing things you wanted to do

Riff 2                                             Riff 1
But now itís gone to far, it looks like Iím losing you

Riff 3
But I donít want sympathy (Sympathy)

Riff 4
But please donít turn your back on me (Back on me)

Riff 5
All I want to do is talk to you

Riff 1

C#m
Iíve gotta talk to you

B
Gotta make you see

C#m
Just how very much

A                   B
You mean Ė you mean to me  yeah yeah yeah!

Riff 1

Riff 2
Would it be too much to try and jog your memory

Riff 1
You remember me baby

Riff 2                             riff 1
I hope Iím still part of your history

Riff 3
But I donít wanna share your car (Share your car)

Riff 4
Or stop you being a star (being a star)

Riff 5
All I want to do is talk to you

Riff 1 into fade

Related for Talk To You tab