Song name
# A B C D E F G H I J K L M N O P Q R S T U V W X Y Z

Small Faces - Red Balloon tab

x -------------------------------------------------------------------------------------------- x
x                                                                                              x
x   Small faces - Red Balloon                                                                  x
x   Standard tuning (EADGBe)                                                                   x
x                                                                                              x
x -------------------------------------------------------------------------------------------- x

p = pull off
h = hammer on
b = bend
/ = slide up
\ = slide down

[intro]

|------------------------------------------------------------------------------------2-------2-|
|-3---3-3-1---1-1-0h1h3--------------------------------------------------------------3-------3-|
|-----------------------0---2b--2-4h5-4-----------2----------------------------------2-------2-|
|---------------------------------------7p5-5-3\2---0---3p0-3p0---0---3p0-3p0----0---0---0---0-|
|---------------------------------------------------------------3-------------3----------------|
|----------------------------------------------------------------------------------------------|
                                                                                Start strumming

[verse 1]

D               G		
bought myself a red balloon 
C          D
had a blue surprise 
                    G
cause hidden in the red balloon
      C            D
was a penny for my eyes

[chorus]

C          G          D
she took a love light from my eyes
C    G    D
blue blue surprise

[solo]

|---------------------------------------------------------------------------2-------2----------|
|---------------------------------------------------------------------------3-------3----------|
|-2--(2)--0--(0)----- 2-----------------------------------------------------2-------2----------|
|-----------------4h5---0---2b--2-4h5-4-----------2---3p0---0-3p0-------0---0---0---0----------|
----------------------------------------7\5-5-3\2---0-----3-------3p0--------------------------|
|---------------------------------------------------------------------3------------------------|
                                                                                Start strumming
[verse 2]

D           G
Played with toys for children
C          D
as a child i got
              G
i haven't any time for children
C             D
although i've got alot

[chorus]

[solo]

[bridge]

G                         C
we met as friends and you were
           D
so easy to get to know
A
will we meet one another again
G      D
oh my, I hope so

[solo]

[verse 1]

[chorus]

[solo]

NOTE: This is probably far from accurate, feel free to correct it!
Tap to rate this tab
 
# A B C D E F G H I J K L M N O P Q R S T U V W X Y Z