Song name
# A B C D E F G H I J K L M N O P Q R S T U V W X Y Z

Small Faces - Song Of A Baker tab

                                          Artist - The Small Faces
                                         **************************
                                          Song - Song Of A Baker 
                                         ************************
                                      Album - Ogdens' Nut Gone Flake
                                     ******************************** 
                                           Tabbed By - Ayreon77
                                          **********************



There is Already a good chord tab for this song, But its missing the Solo.

01:41
[------------------|-------10-------10-------10-------10-------10-------10-]
[------------------|--b-10-----b-10-----b-10-----b-10-----b-10-----b-10----]
[---------------10-|-12-------12-------12-------12-------12-------12-------]
[---h----10-12-----|-------------------------------------------------------]
[-10-12------------|-------------------------------------------------------]
[------------------|-------------------------------------------------------]

                       hold
[--b---b---b---b---b---b------r---------------------|----------------]
[-13--13--13--13--13--13-----------h---------h------|--------------b-]
[--------------------------------10-12-10--10-12-10-|----------10-12-]
[---------------------------------------------------|-12-10-12-------]
[---------------------------------------------------|----------------]
[---------------------------------------------------|----------------]


[---------------]
[--b--13--b--13-]
[-12-----12-----]
[---------------]
[---------------]
[---------------]


[---------------------------------------------------------------------------]
[--b-13--b-13--b-13--b-13--b-13--b-13--b-13--b---h--------------------------]
[-12----12----12----12----12----12----12----12-10-12-10------h------s-------]
[-------------------------------------------------------12-10-12--10\12-----]
[------------------------------------------------------------------------12-]
[---------------------------------------------------------------------------]


[---------------------------------------|--------|-------10--b---b-10--10-10]
[------------------b-13--rb---h---------|-s------|--b-10----13--13----------]
[---------h---10--12----12--10-12-10----|-\12--0-|-12-----------------------]
[---h---10-12------------------------12-|--------|--------------------------]
[-10-12---------------------------------|--------|--------------------------]
[---------------------------------------|--------|--------------------------]

            b  b  b  b  b     b     b     b        h
[-10-10-13-15-15-15-15-15-15-15-15-15-15-15-15-|-13-15-13----p------]
[----------------------------------------------|-----------15-13-15-]
[----------------------------------------------|--------------------]
[----------------------------------------------|--------------------]
[----------------------------------------------|--------------------]
[----------------------------------------------|--------------------]



Enjoy.......
Tap to rate this tab
# A B C D E F G H I J K L M N O P Q R S T U V W X Y Z