Song name
# A B C D E F G H I J K L M N O P Q R S T U V W X Y Z

Small Faces - Whatcha Gonna Do About It tab

The Chord progression for this whole song is just E, A, D, A. But This is the tab for 
the little riffs whilst Steve sings.
I've put the tab for each little lick above the lyric (or tried to line it up).
Long Live Steve Marriott the greatest blue eyed soul singer of all time, and long live 
the Small Faces. C'mon children.




Intro
E------------------------------------------------------------------------|
B------------------------------------------------------------------------|
G---/16-14---------------------------------------------------------------|
D------------17-14-------------------------------------------------------|
A------------------------------------------------------------------------|
E------------------------------------------------------------------------|



1st CHORUS
E------------------------------------------------------------------------------------|
B------------------------17----------------------------------------------------------|
G----------------------------14b------------------------------------/16-14-----------|
D--------------------------------------------------------------------------17-14-----|
A------------------------------------------------------------------------------------|
E------------------------------------------------------------------------------------|
What'cha gonna do about it - Oh Yeah,   Tell the truth, She's so nice


2nd Verse
E--------------------------------------------------------|
B---------------------------17---------------------------|
G------------------14--h16-----------X4------------------|
D--------------------------------------------------------|
A--------------------------------------------------------|
E--------------------------------------------------------|
I want you to come whenever I call you

E------------------------------------------------------|
B------------------------------------------------------|
G---------------------------/16-14---------------------|
D------------------------------------17-14-------------|
A------------------------------------------------------|
E------------------------------------------------------|
And let me walk you home at night


SOLO
E---17bu-17bd--15---------------------------------------------------------------|
B-----------------------17-------------------------17---------------------------|
G--------------------------14bu--14bu----------------14b------------------------|
D--------------------------------------------17--14-------------17--14--17--14--|
A-------------------------------------------------------------------------------|
E-------------------------------------------------------------------------------|

E------------------------------|
B------------------------------|
G---14p--12-----14-------------|X2
D------------14----------------|
A------------------------------|
E------------------------------|
Tap to rate this tab
# A B C D E F G H I J K L M N O P Q R S T U V W X Y Z