Song name
# A B C D E F G H I J K L M N O P Q R S T U V W X Y Z

Small Mercies - Dont You Know Who I Am tab

Ok This is My First Tab so:

E flat tuning (Down 1/2 a step).

Intro

--------------------------------------------------|
--------------------------------------------------|
------2---------2--------2--------2---------------|
-----2--------2---------2--------2----------------|
---0----------------------------------------------|
------------3---------2---------1-----------------|

Verse

----------------------------------------------------|
----------------------------------------------------|
------------0-(tie) 0-----------------0(tie)0-------|
----------2-----------2-------------7--------7------|
------0-0---------------0-0-----5-5-----------5-5---|
----------------------------------------------------|

Pre-Chorus
----------------5--------------------|
----------5-----5--------------------|
----------6--------------------------|
--------------0-----x2---------------|
---0---------------------------------|
-------------------------------------|

Chorus is A,D,F,G

Verse
Pre-Chorus
Chorus
Chorus

Chris *  *
        ^
        U
Tap to rate this tab
 
# A B C D E F G H I J K L M N O P Q R S T U V W X Y Z