Song name
# A B C D E F G H I J K L M N O P Q R S T U V W X Y Z

Small Mercies - Stand On The Outside tab

-------------------------------------------------------------------------------
			     STAND ON THE OUTSIDE - Small Mercies
-------------------------------------------------------------------------------
Tabbed by: Sprontalic
Email: sprontalic88@gmail.com

Tuning: Standard, Capo on 2nd Fret

The tabs in this is what is played by the piano. For those that want to just 
strum the associated chords are labelled above the tab.

Intro
    A             Dsus2        E                 Dsus2
e||------0------|-----0------|-----0---2---0---|-----0------|
B||-------------|------------|-----------------|------------|
G||----2--------|---2--------|---2---2---2---2-|---2--------|
D||--2----------|-0----------|-2---------------|-0----------|
A||-------------|------------|-----------------|------------|
E||-------------|------------|-----------------|------------|
     1 + 2+3+4+   1 + 2+3+4+   1 + 2 + 3 + 4 +   1 + 2+3+4+

Verse 1
    A             Dsus2            E                      Dsus2
e||------0------|-----0----------|-----0---2---0---------|-----0------|
B||-------------|----------------|-----------------------|------------|
G||----2--------|---2------------|---2---2---2---2-------|---2--------|
D||--2----------|-0--------------|-2---------------------|-0----------|
A||-------------|----------------|-----------------------|------------|
E||-------------|----------------|-----------------------|------------|
     1 + 2+3+4+   1 + 2+3+4+       1 + 2 + 3 + 4 +        1 + 2+3+4+

   Waiting for  | tell you where | It comes then it      | 
    someone, to |  love's gone   |  fades from your view |

    A             Dsus2        E                 Dsus2
e||------0------|-----0------|-----0---2---0---|---------0---|
B||-------------|------------|-----------------|-----------3-|
G||----2--------|---2--------|---2---2---2---2-|---2---2-----|
D||--2----------|-0----------|-2---------------|-0---4-------|
A||-------------|------------|-----------------|-------------|
E||-------------|------------|-----------------|-------------|
     1 + 2+3+4+   1 + 2+3+4+   1 + 2 + 3 + 4 +   1 + 2 + 3+4+ 

   Walk in slow | Long lost  | Slowly creeping |
    motion      |  devotion  |  up on you      |

Start strumming

A                  E
Don't stand on the outside
                        F#m
'Cause I will let you in
            D
This is the moment
                   A
So perfect to begin
            E
Lay down beside me
                       F#m
Leave the world behind
                   D
Don't stand in the corner
                    A
I welcome you inside

A
This plan in making
Dsus2
Love is mistaken
E                         Dsus2
You're losing direction in life
A
I'll watch from the inside
Dsus2
Wait for the right time
E                              Dsus2
I'll come for you I'll be your guide

A                  E
Don't stand on the outside
                         F#m
'Cause I will let you in
            D
This is the moment
                   A
So perfect to begin
            E
Lay down beside me
                       F#m
Leave the world behind
                   D
Don't stand in the corner
                     F#m
I welcome you inside

F#m       E              D
There is something more I want to say
      Dsus2            F#m
I need for you to stay
          E
I've been waiting
          D
God knows I've been patient
    Dsus2              A
But time is wasted now

    A            Dsus2         E                 Dsus2
e||-----0------|-----0-------|-----0---2---0-------|
B||------------|-------------|---------------------|
G||---2--------|---2---------|---2---2---2---2-----|
D||-2----------|-0-----------|-2-------------------|
A||------------|-------------|---------------------|
E||------------|-------------|---------------------|
    1 + 2+3+4+   1 + 2+3+4+       1 + 2 + 3 + 4 + 

    Feeling    | Out on your | You're raising your | 
     emotion   |  own and    |  arms to the sky    |

A                  E
Don't stand on the outside
                        F#m
'Cause I will let you in
            D
This is the moment
                   A
So perfect to begin
            E
Lay down beside me
                       F#m
Leave the world behind
                   D
Don't stand in the corner
                    A
I welcome you inside
            E
Lay down beside me
                       F#m
Leave the world behind
                   D
Don't stand in the corner
                    A
I welcome you inside

    A            A
E||------------|------------------|
B||-----2-0----|-----2-0----------|
G||---2-----2--|---2-----2--------| x2
D||-2----------|-0----------------|
A||------------|------------------|
E||------------|------------------|
    1 + 2+3+4+   1 + 2+3+4+       
                I welcome you inside

Strum A once
Tap to rate this tab
 
# A B C D E F G H I J K L M N O P Q R S T U V W X Y Z