Song name
# A B C D E F G H I J K L M N O P Q R S T U V W X Y Z

Small Sins - Why Dont You Believe Me tab

-----------------------------------------------------------------------------
                     Why Don't You Believe Me - Small Sins
-----------------------------------------------------------------------------
Tabbed by:Nick Rohla
Email:nickrohla@gmail.com

Tuning:standard

Intro played throughout
e|------------------------|
B|-------9p8------8-------|
G|--8-11-----11-8---7-8---| 
D|------------------------|
A|------------------------|
E|------------------------|

Verse 1
e|--------------------------------|
B|--------------------------------|
G|--8-8-8-8-8-8-8-8-8-8-8-8-------| x3
D|--8-8-8-8-8-8-8-8-8-8-8-8-8-8-8-|
A|--6-6-6-6-6-6-6-6-6-6-6-6-8-8-8-|
E|--------------------------6-6-6-|
If i had been better looking
If i made you a million
If i had held you at gunpoint

e|---------------------------------------------------------------------|
B|---------------------------------------------------------------------|
G|--8-8-8-8-8-8-8-8-8-8-8-8-------10-10-10-10-10-10-10-10-10-10-10-10--|
D|--8-8-8-8-8-8-8-8-8-8-8-8-8-8-8-10-10-10-10-10-10-10-10-10-10-10-10--|
A|--6-6-6-6-6-6-6-6-6-6-6-6-8-8-8--8--8--8--8--8--8--8--8--8--8--8--8--|
E|--------------------------6-6-6--------------------------------------|
Could i still be forgiven?
Oh please
Why dont you believe me?

e|--------------------------------|
B|--------------------------------|
G|--8-8-8-8-8-8-8-8-8-8-8-8-------| 
D|--8-8-8-8-8-8-8-8-8-8-8-8-8-8-8-|
A|--6-6-6-6-6-6-6-6-6-6-6-6-8-8-8-|
E|--------------------------6-6-6-|

Verse 2 same as above
 
Chorus
e|---------------------------------------------------|
B|---------------------------------------------------|
G|--------------------------8-8-8-8-8-8-8-8-8-8-8-8-8| 
D|--6-6-6-6-6-6-6-6-6-6-6-6-8-8-8-8-8-8-8-8-8-8-8-8-8|
A|--6-6-6-6-6-6-6-6-6-6-6-6-6-6-6-6-6-6-6-6-6-6-6-6-6|
E|--4-4-4-4-4-4-4-4-4-4-4-4--------------------------|

Dont you leave me here in the pouring rain
If i pretended to be different well id still feel the same
Ill give you anything you think that you need
But surely ive earned credit
So why dont you believe me?

e|--------------------------------------------|
B|--------------------------------------------|
G|--10-10-10-10-10-10-10-10-10-10-10-10-10-10-|
D|--10-10-10-10-10-10-10-10-10-10-10-10-10-10-|
A|--8--8--8--8--8--8--8--8--8--8--8--8--8--8--|
E|--------------------------------------------|

e|--------------------------------|
B|--------------------------------|
G|--8-8-8-8-8-8-8-8-8-8-8-8-------| 
D|--8-8-8-8-8-8-8-8-8-8-8-8-8-8-8-|
A|--6-6-6-6-6-6-6-6-6-6-6-6-8-8-8-|
E|--------------------------6-6-6-|


Verse 3 

Chorus

Solo
e|--11-10-8-6/8--3h4/6--3h4/6-6--|         e|--3h4/6-8-10-11-10-8-6--|
B|-------------------------------|         B|------------------------|
G|-------------------------------| x5 then G|------------------------|
D|-------------------------------|         D|------------------------|
A|-------------------------------|         A|------------------------|
E|-------------------------------|         E|------------------------|

Chorus

http://smallsinsmusic.com/
************************************

| /   slide up
| \   slide down
| h   hammer-on
| p   pull-off
| ~   vibrato
| +   harmonic
| x   Mute note
| b   Bend
| pb  Pre-bend
| br  Bend release
| pbr Pre-bend release
| brb Bend release bend

************************************
Tap to rate this tab
# A B C D E F G H I J K L M N O P Q R S T U V W X Y Z