Song name
# A B C D E F G H I J K L M N O P Q R S T U V W X Y Z

Small Towns Burn A Little Slower - Answers tab

http://www.myspace.com/vigilanteband  
http://www.vigilante.cn/

This is a pretty easy song to play.
~ = Let ring

Intro (Piano)

E|-17~--16~--12~---------------------------|
B|-----------------15-14~----12~--14-[15]--|
G|-----------------------------------------| x2
D|-----------------------------------------|
A|-----------------------------------------|
D|-----------------------------------------|

Play all but last note twice.

Chorus

E|-------------------------------------|
B|-------------------------------------|
G|-------------------------------------|
D|-444444-4------444444-4------7~--2~--|  x4
A|-444444---5-4--444444---5-4--7~--2~--|
D|-444444--------444444--------7~--2~--|

Verse

It sounds synth, but this works too

E|--------------|
B|--------------|
G|--------------|
D|-4~~-7~~-11~~-|  x4
A|-4~~-7~~-11~~-|
D|-4~~-7~~-11~~-|

Chorus

Verse

Break

Chorus x 2

End
Tap to rate this tab
# A B C D E F G H I J K L M N O P Q R S T U V W X Y Z