Song name
# A B C D E F G H I J K L M N O P Q R S T U V W X Y Z

Smallpools - No Story Time tab

Artist: Smallpools
Song: No Story Time
Album: Smallpools EP
Tuning: Standard

e |-------------------------------------|
B |------12--13--12-13-12--12--12--13---|
G |--12---------------------------------|
D |-------------------------------------|
A |-------------------------------------|
E |-------------------------------------|


Verse 1

e |--0----0------------------------------------------|
B |--1----1---13--11-------------------7-------------|
G |--0----2----------12---9---9\7--7h9----9--7--9----|
D |--2----2------------------------------------------|
A |--3----0------------------------------------------|
E |--x----x------------------------------------------|

Fall from my head
Through my subconciousness
But I'm just a host
I'm just a conduit

Pre Chorus

e |--1------3------|
B |--1------3------|
G |--2------4------|
D |--3------5------|
A |--3------5------|
E |--1------3------|


What's the reason
What's the reason
You sought me out
Sought-ought me out
Forced to please them
Forced to be what they talk about
Talk-alk, about

Interlude
e |---------------------|
B |---------------------|
G |--12--9--7--5--------|
D |---------------------|
A |---------------------|
E |---------------------|

Chorus

e |--1----3----------0--------|
B |--1----3----------1--------|
G |--2----4----0-----2--------|
D |--3----5----2-----2--------|
A |--3----5----2-----0--------|
E |--1----3----0-----x--------|

Don't you leave me alone
Don't you let go
Don't you leave me alone
Don't you let go
Don't you let go

Verse 2

String in my hands
Tethered to faceless friends
So I can't be blamed
For anything I've just said
What's the reason
What's the reason you scope me out
Scope-ope, me out
Forced to please them
Forced to be what they talk about
Talk-alk, about

Chorus

Bridge

e |---------------------|
B |---------------------|
G |--b12---b9---7\5-----|
D |---------------------|
A |---------------------|
E |---------------------|


e |--x------x------|
B |--1------1------|
G |--0------2------|
D |--2------2------|
A |--3------0------|
E |--x------x------|

I can feel it
Feel the cold stare
Through a crosshair
Up on the mezzanine
And when my warm blood
Hits the cold air
I can feel a flash on my good side

Chorus
Tap to rate this tab
# A B C D E F G H I J K L M N O P Q R S T U V W X Y Z