Guitaretab - guitar tabs
Song name
# A B C D E F G H I J K L M N O P Q R S T U V W X Y Z

Smalltown Boredom - Class A tab

-------------------------------------------------------------------------------
			     Class A - Smalltown Boredom
-------------------------------------------------------------------------------
Tabbed by:5th chord mayhem
Email:trowa@fsmail.net

Tuning: standard but can be dropped
 
h = harmonics                       b = bend up 
x = mute strings on 1st fret        r = release bend/bend down
. = palm mute
/ = slide up
\ = slide down
h = hammer on 
p = pull off


e|-----------------------------------|
B|-----------------------------------|
G|-----------------------------------|   x 10
D|-2-x-x-3-x-x-5-----5\4/5-----------|
A|-2-x-x-3-x-x-5-----5\4/5-----------|
E|-0-x-x-1-x-x-3-3-3-3\2/3-----------|
                 h h 
e|-------------------------|
B|-------------------------|
G|-4-----------------------|
D|-4-0-0-2-0-0-3-0-0-2-----|   x 4
A|-2-0-0-2-0-0-3-0-0-2-----|
E|---0-0-0-0-0-1-0-0-0-----|
     . .   . .   . .
e|-------------------------|
B|-------------------------|
G|-4-----------------------| 
D|-4-0-0-2-0-0-3-0-0-2-0-0-|   x 6
A|-2-0-0-2-0-0-3-0-0-2-0-0-|
E|---0-0-0-0-0-1-0-0-0-0-0-|
     . .   . .   . .   . .
e|-----------------------------------------------|
B|-----------------------------------------------|
G|-4-----------4-----------4---------------------|
D|-4-0-0-2-----4-0-0-2-----4-0-0-2-0-0-3-0-0-2---|  x 6
A|-2-0-0-2-----2-0-0-2-----2-0-0-2-0-0-3-0-0-2---|
E|---0-0-0-------0-0-0-------0-0-0-0-0-1-0-0-0---|
     . .         . .         . .   . .   . .
e|-----------------------------------|
BČ-----------------------------------|
G|-----------------------------------|
D|-----------------------------------|    x 1 bridge
A|-0-0-0-0-0-0-0-0-0-0-0-0-0-0-0-0---|
E|-----------------------------------|
   . . . . . . . . . . . . . . . .
[ Tab from: http://www.guitaretab.com/s/smalltown-boredom/135758.html ]
 Outro/solo
 
e|--------------------------------------------------------------------|
B|--------------------------------------------------------------------|
G|----------------------13p12p10--------------------------------------|
D|-------------------------------13p12p10---------------------14--15--|
A|--10/12-----13\12-----------------------10/12-----13\12-----12--13--|
E|--------0-0-------0-0-------------------------0-0-------0-0---------|
          . .       . .                         . .       . .                   x 2
e|----------------------------------------------------------------------|
B|----------------------------------------------------------------------|
G|----------------------13p12p10------------------------------14b15r14--|
D|-------------------------------13p12p10-------------------------------|
A|--10/12-----13\12-----------------------10/12-----13\12---------------|
E|--------0-0-------0-0-------------------------0-0-------0-0-----------|
          . .       . .                         . .       . .

e|--------------------------------------------------------15p14p12---------|
B|-------12-12-------12-12-------12-12-15p14p12h15p14p12-------------------|
G|-14b15-------14b15-------14b15-----------------------------------14-14---|
D|-----------------------------------------------------------------12-12---|
A|-------------------------------------------------------------------------|
E|-------------------------------------------------------------------------|

e|----------------------------------------------------|
B|-------------------------------------13-b14r13\2----|
G|-----------------------------12h14h15------------4--|
D|---------------------12h14h15--------------------4--|
A|-10/12-----13\12---------------------------------2--|
E|-------0-0-------0-0--------------------------------|
         . .       . .


===============================================================================
Related for Class A tab