Song name
# A B C D E F G H I J K L M N O P Q R S T U V W X Y Z

Smash Mouth - Waste tab

Song: Waste
Artist: Smash Mouth
Album: Astrolounge
Track: 4
Tabbed By: Aaron D.
Tuning: Half-step down


      h - hammer on
      p - pull off
      ^ - bend string up
      r - release bend
      / - slide up
      \ - slide down
      ~ - vibrato
      x - play 'note' with heavy damping


Chord Shapes
************
   |EADGBe|
   ========
B  |x2444x|
F#m|244222|
Em7|022030|
A7 |x02020|


Verse
************

B                   F#m
I'm lookin' at my watch,

Em7                             A7
at all the time that's been stolen,

B                   F#m
when I was carrying you,

Em7                             A7
seems I've tripped and I've fallen.

   (this continues throughout the song)


Chorus
************
e------------------------------------2-----------3------------5-----------2----|
B--------3-------------2-------------3---------1-1----------3-3-------------0--|
G------0-------------0-------------0---------0---------------------------------|
D----4-------------2-------------4------------------------4-------4-----0------|
A------------2---0---------0h2-------------0--------0-3/5---------5------------|
E--0---------------------------0---------0----------------------------3--------|

e---------------------------|
B------0-0-----2-----2------|
G----0-0-0---------3-3-3-3--|
D----0-0-0---4---4-4-4-4-4--|
A----x-x-x-------4-4-4-4-4--|
E--3-3-3-3-2-----2-2-2-2-2--|


Fill
************

e-------------|
B-------------|
G-------------|
D--4^r-2---1--|
A-------------|
E-------------|


Chorus #2
************

e----------------------2-----------------5-----2-------0----|
B------3-------2---------------3-------3---------0----------|
G----0-------0-------0-------5---------------------------3--|
D--4-------2-------4-------5--------------------------------|
A----------------------------------3/5----------------------|
E--------------------------------------------3-------2------|


Solo #1
************

e-------------------------------------------------------------------3---3h5-7-7-5--|
B---------------------------------------------4---4-5-7-4h5-2----------------------|
G---------------------------------------------4---4-6-8-4h6-2---2/4-----4h6-7-7-6--|
D--1---1-2-4-----------------------------------------------------------------------|
A------------2h4-0---0-0h2-----2-4-5-4/5\4--0--------------------------------------|
E--------------------------0-------------------------------------------------------|

e------5----|
B-----------|
G--4/6---6--|
D-----------|
A-----------|
E-----------|


Verse #2
************

e---------2----------0----0-0-----------|
B--4----4-2--------2-3----3-2--------2--|
G--4----4-2------2---0----0-0------0----|(x2)
D--4----4-4----4-----2----2-2----2------|
A--2----2-4----------2----2-0-----------|
E---------2-----------------------------|


Solo #2
************

e---------------------------------------2-------------3------------5---------2----|
B---------3-------------2-----------------3---------3---3----------------------0--|
G-------0-------------0---------------0-----------0-------------5-----------------|
D-----4-------------2---------------4-------------------------4------4-----0------|
A-------------2---0---------0-0h2---------------0-----------5---------------------|
E--0------------------------------0-----------0--------------------------3--------|

e------0---------     --7~------|
B------------4~--     --7~------|
G--------3---4~--     --8~------|  (whichever you think sounds right)
D----4-------4~--  -or-  --9~---|
A------------2~--     --9~------|
E--2-------------     --7~------|


Then just play the last verse the same as the first and that's it. Even though they're 
real popular anymore I still like to listen to and play this song because it is there 
mature and only sad song it seems. This is my first tab please rate!
Tap to rate this tab
# A B C D E F G H I J K L M N O P Q R S T U V W X Y Z