Guitaretab - guitar tabs
Song name
# A B C D E F G H I J K L M N O P Q R S T U V W X Y Z

Smash Mouth - Why Cant We Be Friends tab

 Smash Mouth
 "Why can't we be friends?"
 Fush Yu Mang
 Tabbed by: Myst

A great song with a stupid tab 
From Myst (yes my first tab)
If you need a example 
of the song
http://www.youtube.com/watch?v=KQLC7HQEH70

Intro   (Wah-Wah box)
										     |	
E|----------------------------------||--------------------------x-x-|
B|----------------------------------||--------------------------x-x-|
G|----------------------------------||--------------------------x-x-|
D|----------------------------------||------------------------------|
A|----------------------------------||------------------------------|
E|----------------------------------||------------------------------|  
  |   |   |   |   |   |   |   |     |   |   |   |   |   |   |   |
E|4---x-x-4---4---x-x-x-x-4---x-x-||4---x-x-5---4---x-x-x-x-4---x-x-|
B|4---x-x-6---4---x-x-x-x-4---x-x-||6---x-x-7---4---x-x-x-x-4---x-x-|
G|5---x-x-5---5---x-x-x-x-5---x-x-||6---x-x-7---6---x-x-x-x-6---x-x-|
D|--------------------------------||--------------------------------|
A|--------------------------------||--------------------------------|
E|--------------------------------||--------------------------------| 
[ Tab from: http://www.guitaretab.com/s/smash-mouth/121746.html ]
  Verse en chorus
E|4---------------4---------------||2----------------4-------4------|
B|6---------------4---------------||2----------------6-------4------|
G|6---------------5---------------||3----------------5-------5------|
D|--------------------------------||--------------------------------|
A|--------------------------------||--------------------------------|
E|--------------------------------||--------------------------------|  


  bridge
E|4-------------------------------||6---------------------------------|
B|4-------------------------------||8---------------------------------|
G|5-------------------------------||8---------------------------------|
D|--------------------------------||----------------------------------|
A|--------------------------------||----------------------------------|
E|--------------------------------||----------------------------------|  

E|7-------------------------------||9---------------------------------|
B|8-------------------------------||11--------------------------------|
G|8-------------------------------||11--------------------------------|
D|--------------------------------||----------------------------------|
A|--------------------------------||----------------------------------|
E|--------------------------------||----------------------------------|
Related for Why Cant We Be Friends tab
Advertisement will be closed in 10 seconds