Song name
# A B C D E F G H I J K L M N O P Q R S T U V W X Y Z

Smash Mouth - Everyday Superhero tab

Help us improve GuitareTab! Take a short survey!
x
x   =  Quarter Rest
x

0   =  Open String

/x3/=  Repeat 3 times


Tuning: Standard

There is a different rhythm for each section


Intro:

          D                A                C                G
e|--------------------------------------------------------------------------|
B|--------------------------------------------------------------------------|
G|---7--7--7--7------------------------5--5--5--5---------------------------|
D|---5--5--5--5-------7--7--7--7-------3--3--3--3-------5--5--5--5----------|
A|---5--5--5--5-------5--5--5--5-------3--3--3--3-------3--3--3--3----------|
E|--------------------5--5--5--5------------------------3--3--3--3----------|
          D                A                C
 e|--------------------------------------------------------------------------|
B|--------------------------------------------------------------------------|
G|---7--7--7--7------------------------5--x-x--5----------------------------|
D|---5--5--5--5-------7--7--7--7-------3--x-x--3----------------------------|
A|---5--5--5--5-------5--5--5--5-------3--x-x--3----------------------------|
E|--------------------5--5--5--5--------------------------------------------|


Verse:

    D   A       C  G      /x3/    
e|-------------------------//-----------------------------------------------|
B|-------------------------//-----------------------------------------------|
G|---7----------5----------//---7--7--7--7----------------------------------|
D|---5--7-------3--5-------//---5--5--5--5-----7--7--7--7-----5--5--5--5----|
A|---5--5-------3--3-------//---5--5--5--5-----5--5--5--5-----3--3--3--3----|
E|------5----------3-------//------------------5--5--5--5-----3--3--3--3----|


Chorus:

          D                A                C                G          /x4/
e|------------------------------------------------------------------------//|
B|------------------------------------------------------------------------//|
G|---7--7--7--7------------------------5--5--5--5-------------------------//|
D|---5--5--5--5-------7--7--7--7-------3--3--3--3-------5--5--5--5--------//|
A|---5--5--5--5-------5--5--5--5-------3--3--3--3-------3--3--3--3--------//|
E|--------------------5--5--5--5------------------------3--3--3--3--------//|


Bridge (after 2nd chorus):

       A         E         G         D           /x4/                       
e|-----------------------------------------------//-------------------------|
B|-----------------------------------------------//-------------------------|
G|---------------------------------7--7--------- //-------------------------|
D|---7--7----------------5--5------5--5----------//-------------------------|
A|---5--5------2--2------3--3------5--5----------//-------------------------|
E|---5--5------0--0------3--3--------------------//-------------------------|




Related for Everyday Superhero tab