Song name
# A B C D E F G H I J K L M N O P Q R S T U V W X Y Z

Smash Mouth - All Star tab

Verse 

     F#      C#     G#m        B
e|---2-------4-4-----4---------2---2----|  
B|---2-------6-6-----4---------4---4----| 
G|---3-------6-6-----4---------4---4----|  
D|---4-------6-6-----6---------4---4----| 
A|--------------------------------------| 
E|--------------------------------------| 


Chorus
     F#5         B#5          C           B#5
e|-------------------------------------------------------| 
B|-------------------------------------------------------| 
G|---------------4--4--4--xx--5--5--5--xx--4--4--xxxx----|
D|---4--4--xxxx--4--4--4--xx--4--4--4--xx--4--4--xxxx----|   X3
A|---4--4--xxxx--2--2--2--xx--3--3--3--xx--2--2--xxxx----| 
E|---2--2--xxxx------------------------------------------| 


e|---------------------------------|
B|---------------------------------|
G|---------------------------4-----|
D|---4--4--xxxx--2--2--xxxx--4-----|
A|---4--4--xxxx--2--2--xxxx--2-----|
E|---2--2--xxxx--0--0--xxxx--------|


Solo 
|--9---------------------------------------------|
|----9/11--9--7-----11-12-11---9-7---------------|
|-----------------------------------8--6---------|
|------------------------------------------------|
|------------------------------------------------|
|------------------------------------------------|

Chorus again


Then pick over these Chords:
F#      C#     G#m        B



And then pick this:

|-------2----------2------------2----------2----|
|-----2---2------2---2--------2---2------2---2--|
|-----------------------------------------------|
|-----------------------------------------------|
|--------------2-----------3-----------2--------|
|--2--------------------------------------------|

Then another chorus
Tap to rate this tab
 
# A B C D E F G H I J K L M N O P Q R S T U V W X Y Z