Guitaretab - guitar tabs
Song name
# A B C D E F G H I J K L M N O P Q R S T U V W X Y Z

Smash Mouth - Then The Morning Comes tab

name: Brian H.

artist: Smash Mouth

SongTitle: Then the Morning Comes

Tabs: Band: Smash Mouth
Song: Then the Morning Comes
CD: Astro Lounge
Transcribed By: Brian H.
Email: dostovei_9@hotmail.com

Here goes another one of my weak attempts at trying to tab a song. If 
you want some real tabs that are all accurate, go to this site: 
www.geocities.com/SunsetStrip/Garage/4564/tabs.htm

/ = Slide Up
\ = Slide Down

At the beginning, an alarm clock says Good Morning. Right before that, 
you here this:

E|-7---7------|
B|---7---7----|
G|------------|

Intro: (I think this might actually be a keyboard) Play it with a lot 
of distortion so you can get that buzzing sound.

E|--------------------------|-----------------------------------|
B|--------------------------|-----------------------------------|
G|--------------------------|-----------------------------------|
D|--------1-3-3/4\3-1-------|--------1/8-7/8--------------------|
A|-3--3-3-------------3-1-3-|-3--3-3----------------------------|
E|--------------------------|-----------------------------------|

Play the 1st segment 3 times, and then on the 4th time, play the 2nd 
segment. (You'll hear what I'm talking about.)

Verse 2: (No guitar, just drums and bass, but after the word near, 
there's a little beep noise twice. It's on the high-e string, next to the B 
string, and it's fret number 22. Way up high.)

Paint the town, take a bow thank everybody, you're gonna do it again. 
You are the feud, the proud, you are the antibody, mind, soul, and zen.
And the world's a stage, and the world's a faze, and the end is near. 
So push rewind just in time thank everybody, you're gonna do it again.

Chorus: (After he says "Walk," "Talk," and "Fling," you play this 
little riff:

E|-11--8--11----------|
B|------------11------|
G|--------------------|
D|--------------------|
A|--------------------|
E|--------------------|

The way that you walk, it's just the way that you talk, like it ain't 
no thing, and every single day is just a fling, then the morning comes.

Now play the intro 1st segment part once, and then the 2nd part.

Verse 2:

Take your knock, shake 'em off, duck everybody, you're gonna take 'em 
again. You are your foe, your friend, you are the Povarazzi, you are the 
tragedy end. And the world's a stage, and the world's a faze. And the 
end is near. So push rewind just in time thank everybody, you're gonna 
take 'em again.

Chorus: (Repeat as the same as the other one)

Verse 3: 

And when it comes it moves so slow, kinda like it's sayin' I told you 
so. Lookin' back before she goes, tomorrow's gonna hurt.

This is played after verse 3 several times:

E|------------------------------|
B|------------------------------|
G|------------------------------|
D|------------------------------|
A|------5----3-----------5---3--|
E|-5-5----5---------5-5----5----|

This is played after that above:

E|-6-6-6--5-5-5--3--2-3-2-3-------------------------------------|
B|--------------------------------------------------------------|
G|--------------------------------------------------------------|
D|--------------------------------1-3-3/4-4-4-4-4-4\3-----------|
A|----------------------------3-3----------------------3-1------|
E|--------------------------------------------------------------|

Then play the chorus once more two end the song.

There might be errors on the lyrics. Just email me with any questions, 
errors, comments, corrections, etc. 

Thank you.  Enjoy!!!



[ Tab from: http://www.guitaretab.com/s/smash-mouth/26576.html ]
Related for Then The Morning Comes tab
×
Best way to learn
"Then The Morning Comes"