Song name
# A B C D E F G H I J K L M N O P Q R S T U V W X Y Z

Smash Mouth - Then The Morning Comes tab

Intro: Drums

e------------------------------|------------------------------|
B------------------------------|------------------------------|
G-------8-10-10/11---10-8------|-------8-10-10/11---10-8------|
D-10-10-------------------10-8-|-10-10-------------------10-8-|
A------------------------------|------------------------------|
E------------------------------|------------------------------|

e|-----------------------------|------------------------------|
B|-----------------------------|---------11-10b11-------------|
G|-------8-10-10/11---10-8-----|-------8----------------------|
D|-10-10-------------------10-8|-10-10------------------------|
A|-----------------------------|------------------------------|
E|-----------------------------|------------------------------|

Verse:


e-3------3------3------3-|
B-4------4------4------4-|
G-5------5------5------5-| X4
D------------------------|
A------------------------|
E------------------------|

e------------------------|------------------------|
B------------------------|------------------------|
G-------8-10-10/11-------|-------8-10-7-----------|
D-10-10------------------|-10-10------------------|
A------------------------|------------------------|
E------------------------|------------------------|


e--3-----3-------3-----3-|-3-------3--------------|
B--4-----4-------4-----4-|-4-------4--------------|
G--5-----5-------5-----5-|-5-------5--------------| Pause.
D------------------------|------------------------|
A------------------------|------------------------|
E------------------------|------------------------|


Chorus:
  Eb      G#      Bb      G#   Eb      G#      Bb      G#   Eb      G#      Bb      Cm

e-6-------8-------6-------8--|-6-------8-------6-------8--|-6-------8-------6-------3--|
B-8-------9-------6-------9--|-8-------9-------6-------9--|-8-------9-------6-------4--|
G-8-------8-------7-------8--|-8-------8-------7-------8--|-8-------8-------7-------5--|
D----------------------------|----------------------------|----------------------------|
A----------------------------|----------------------------|----------------------------|
E----------------------------|----------------------------|----------------------------|


Intro:


e---------------------------------|------------------------|
B---------------------------------|---------11-10b11-------|
G-------8-10-10/11---10-8---------|-------8----------------|
D-10-10-------------------10-8-10-|-10-10------------------|
A---------------------------------|------------------------|
E---------------------------------|------------------------|


Verse:2

e-3------3------3------3-|
B-4------4------4------4-|
G-5------5------5------5-| X4
D------------------------|
A------------------------|
E------------------------|

e------------------------|------------------------|
B------------------------|------------------------|
G-------8-10-10/11-------|-------8-10-7-----------|
D-10-10------------------|-10-10------------------|
A------------------------|------------------------|
E------------------------|------------------------|


e--3-----3-------3-----3-|-3-------3--------------|
B--4-----4-------4-----4-|-4-------4--------------|
G--5-----5-------5-----5-|-5-------5--------------| Pause.
D------------------------|------------------------|
A------------------------|------------------------|
E------------------------|------------------------|



Chorus:
  Eb   G#   Bb     G#   Eb    G#      Bb      G#   Eb      G#      Bb      Bb

e-6----8----6------8--|-6-----8-------6-------8--|-6-------8-------6-------6--|
B-8----9----6------9--|-8-----9-------6-------9--|-8-------9-------6-------6--|
G-8----8----7------8--|-8-----8-------7-------8--|-8-------8-------7-------7--|
D---------------------|--------------------------|----------------------------|
A---------------------|--------------------------|----------------------------|
E---------------------|--------------------------|----------------------------|


Brigde:


e-8-----8-------8-------8--|
B-8-----8-------10------10-|
G-9-----9-------10------10-| X3
D--------------------------|
A--------------------------|
E--------------------------|

Intrument: 4bars

Guitar solo:

e--------------------------------|---------------------------------------|
B-11-11-11-10-10-10-9---9-9----9-|---------------------------------------|
G---------------------------10---|-------8-10-10/11---11-8-10-10-8-------|
D--------------------------------|-10-10---------------------------10-10-|
A--------------------------------|---------------------------------------|
E--------------------------------|---------------------------------------|


e--------------------------------|------------------------|
B-11-11-11-10-10-10-9---9-9----9-|---------11-10b11-------|
G---------------------------10---|-------8----------------|
D--------------------------------|-10-10------------------|
A--------------------------------|------------------------|
E--------------------------------|------------------------|


e------------------------|------------------------|
B------------------------|------------------------|
G-------8-10-10/11-------|-------8-10-7-----------|
D-10-10------------------|-10-10------------------|
A------------------------|------------------------|
E------------------------|------------------------|


e--3-----3-------3-----3-|-3-------3--------------|
B--4-----4-------4-----4-|-4-------4--------------|
G--5-----5-------5-----5-|-5-------5--------------|
D------------------------|------------------------|
A------------------------|------------------------|
E------------------------|------------------------|

  Eb      G#      Bb      G#   Eb      G#      Bb      G#   Eb      G#      Bb

e-6-------8-------6-------8--|-6-------8-------6-------8--|-6-------8-------6-|
B-8-------9-------6-------9--|-8-------9-------6-------9--|-8-------9-------6-|
G-8-------8-------7-------8--|-8-------8-------7-------8--|-8-------8-------7-|
D----------------------------|----------------------------|-------------------|
A----------------------------|----------------------------|-------------------|
E----------------------------|----------------------------|-------------------|
Tap to rate this tab
# A B C D E F G H I J K L M N O P Q R S T U V W X Y Z