Song name
# A B C D E F G H I J K L M N O P Q R S T U V W X Y Z

Smash Mouth - Walkin On The Sun tab

Tabbed by: Ron Gawley
Artist: Smash Mouth
Song: Walkin on the Sun





eb|----------------------------------------------|
bb|----------------------------------------------|
gb|----------------------------------------------|
db|-----2-0---0-2--4-7-5-4/2-0-2-----------------| x3
ab|-0-3-----3------------------------------------|
eb|----------------------------------------------|

eb|----------------------------------------------|
bb|----------------------------------------------|
gb|----------------------------------------------|
db|-----2-0---0-2--2-2-2-2--0-0------------------|
ab|-0-3-----3-------------------3-3--------------|
eb|----------------------------------------------|
        (Continues right into next part!)

eb|-----------|-----------|
bb|-----------|-----------|
gb|-----------|-----------|
db|---2---4-4-|---5---4-4-|
ab|-0-3-0-5-5-|-0-7-0-5-5-|
eb|-----------|-----------|

I've seen a lot of covers of this, but everyone's missing a very important piece, which 
is what I came up with above.

Any questions email me at rjg214@yahoo.com
Tap to rate this tab
# A B C D E F G H I J K L M N O P Q R S T U V W X Y Z