Song name
# A B C D E F G H I J K L M N O P Q R S T U V W X Y Z

Smashed Blueberries - One Will Win tab

Tab Legend

Palm mute P.M.
Wammy bar W.B.
Vibroto ~

Intro:


|------------------------------------------|-----------------------------------------|
|------------------------------------------|-----------------------------------------|
|------------------------------------------|-----------------------------------------|
|------------------------------------------|-----------------------------------------|
|--------7-------5------------5-------3----|--------9-------7-----------7-------5----|
|--5-5-------5----------3-3-------3--------|--7-7-------7---------5-5-------5--------| x2

|--------------|
|--------------|
|--------------|
|--------------|
|----9---7---5-|
|--7---5---3---|
P.M.-----------|


|------------------------------------------|-----------------------------------------|
|------------------------------------------|-----------------------------------------|
|------------------------------------------|-----------------------------------------|
|------------------------------------------|-----------------------------------------|
|--------7-------5------------5-------3----|--------9-------7-----------7-------5----|
|--5-5-------5----------3-3-------3--------|--7-7-------7---------5-5-------5--------| x2

|--------------|
|--------------|
|--------------|
|--------------|
|----9---7---5-|
|--7---5---3---|
P.M.-----------|

Verse

|------------------------------------------|
|------------------------------------------|
|------------------------------------------|
|------------------------------------------|
|--9-9---7-9-9---7-9-9---7-9-9---7-9-9-----|
|------9-------9-------9-------9-------9~--|X2

Chorus

|------------------------------|-------------------------------|
|------------------------------|-------------------------------|
|------------------------------|-------------------------------|
|------7------5------5------3--|------7------5------5------3-3-|
|------7------5------5------3--|------7------5------5------3-3-|
|--0-0-5--0-0-3--0-0-3--0-0-1--|--0-0-5--0-0-3--0-0-3--0-0-1-1-| x2

Pre Solo
|-----------------------|
|-----------------------|
|-----------------------|
|--5--------------------|
|--5--------------------|
|--3--------------------|
W.B. -------------------|

Solo

|-------------------------7-10b12-----------------|
|-----------------------9-------------------------|
|--7b9--7---9b11------7--------------7------9-----|
|-------------------9----------------7-7----9-9---|
|--------------------------------------7------9---|
|-------------------------------------------------|

|--7----10----------------------------------|
|-------------------------------------------|
|-----------------7b9--9b11--9-7------------|
|----------------------------9-7----7-7-7-7-|
|-----------------------------------7-7-7-7-|
|-----------------------------------5-5-5-5-|
                                    P.M.---

Chorus

|------------------------------|-------------------------------|
|------------------------------|-------------------------------|
|------------------------------|-------------------------------|
|------7------5------5------3--|------7------5------5------3-3-|
|------7------5------5------3--|------7------5------5------3-3-|
|--0-0-5--0-0-3--0-0-3--0-0-1--|--0-0-5--0-0-3--0-0-3--0-0-1-1-| x2


Outro

|--------------------|------------|
|--------------------|------------|
|--------------------|------------|
|--7-----------------|--7-7-----5-|
|--7-----------------|--7-7-----5-|
|--5-----------------|--5-5-----3-|


In the chorus palm mute the open e notes.
Tap to rate this tab
 
# A B C D E F G H I J K L M N O P Q R S T U V W X Y Z