Song name
# A B C D E F G H I J K L M N O P Q R S T U V W X Y Z

Smashing Pumpkins - Vanilla tab

Highlighted       Show chord diagrams
Intro: 

Guitar1
e |----------------------------------------------|
B |----------------------------------------------|
G |--2----0----------------0---2---0-------------|
D |-----------2---0---0h2--------------2---0-----|
A |----------------------------------------------|
E |--3--3---3---3---3------------3---3---3---3---|

Guitar 2
e |----------------------------------------------|
B |--10---8-----------------8----10v---8---------|
G |-----------7---9---7h9-----------------7---9--|
D |----------------------------------------------|
A |----------------------------------------------|
E |----------------------------------------------|

G
Do you scream
Am
Or do you dream
C  -   G   -  Em
I am vanilla
    -      Am     -      C    -      G  - C G
I might consider this an invitation, yeah

G
More than you think
Am
I need a drink
C  -   G F#/G Em
I am vanilla
   -       Am      -     C    -      G  - C G
I might consider this an invitation, yeah

G
She is my only friend
          -                 Am
I'm with her till, till the end
          -           G
Yeah, they talk about me

I'm with her all the time
          -                  Am
And i wish that she, she was mine
          -            Am
Yeah, they talk about me

G
I Am
   -   Am
I am vanilla
C
I Am
  -    G F#/G Em
I am vanilla
   -       Am    -       C    -      G  - C G
I might consider this an invitation, yeah

G
Do you scream
Am
Or do you dream
C  -   G   -  Em
I am vanilla
    -      Am     -      C     -     G  - C G
I might consider this an invitation, yeah
    -      Am     -      C  - D   -   G  - C G 
I might consider this an invi-tation, yeah
Tap to rate this tab
# A B C D E F G H I J K L M N O P Q R S T U V W X Y Z