Song name
# A B C D E F G H I J K L M N O P Q R S T U V W X Y Z

Smashing Pumpkins - Soot And Stars tab

-------------------------------------------------------------------------------
			     SOOT AND STARS - Smashing Pumpkins
-------------------------------------------------------------------------------
Tabbed by: Kai O'Brien
Email: kai@aiiaaccess.com

Tuning: Standard

Verse

------0---------|-------0---------|-------0-------|-3---3---5---5---|
-0--3---3---3---|-0---3---5---5---|-0---3---7---8-|-----5-------5---|
---5--------4---|---5---------5---|---5-----------|-------5---------|
--------------2-|---------------5-|---------------|---------------7-|
-0--------------|-5-------3-------|---------5-----|-3-------0-------|
--------0-------|-----------------|-0-------------|-----------------|

 A      E         D       C         E       D       C

Chorus

|-------0-------|-3---3---5---5---|
|-0---3---7---8-|-----5-------5---|
|---5-----------|-------5---------|
|---------------|---------------7-|
|---------5-----|-3-------0-------|
|-3-------------|-----------------|

  G       D       C       A

You may find different chord positions sound better or are easier to play.  Please send 
comments/corrections.
Tap to rate this tab
# A B C D E F G H I J K L M N O P Q R S T U V W X Y Z