Guitaretab - guitar tabs
Song name
# A B C D E F G H I J K L M N O P Q R S T U V W X Y Z

Smashing Pumpkins - White Spyder tab

White Spyder by Smashing Pumpkins

Intro:
Eb|-------8b~~------8b~~----------------|
Bb|----5---------5----------------------|
Gb|-------------------------------------|
Db|-------------------------------------|
Ab|-------------------------------------|
Db|-----------------------\\\\\\\-slide-|
     3x
Eb|-----------------------------------|
Bb|-----------------------------------|
Gb|-------7--797--5-------------------|
Db|-------7--797--5--------7-7---3-3--|
Ab|-------5--575--3--------7-7---3-3--|
Db|--0-0-------------0-0---7-7---3-3--|

Eb|----------------------------------------|
Bb|----------------------------------------|
Gb|----------------------------------------|
Db|----------------------------------------|
Ab|----------------------------------------|
Db|--xx-xx-xxxx--///\\\-palm muted slide---|



VERSE:      3x
Eb|-----------------------------------|
Bb|-----------------------------------|
Gb|-------7--797--5-------------------|
Db|-------7--797--5--------7-7---3-3--|
Ab|-------5--575--3--------7-7---3-3--|
Db|--0-0-------------0-0---7-7---3-3--|

Eb|-----------|
Bb|-----------|
Gb|-----------|
Db|--88888-7--|
Ab|--88888-7--|
Db|--88888-7--|
     2x
Eb|-----------------------------------|
Bb|-----------------------------------|
Gb|-------7--797--5-------------------|
Db|-------7--797--5--------7-7---3-3--|
Ab|-------5--575--3--------7-7---3-3--|
Db|--0-0-------------0-0---7-7---3-3--|

Eb|-----------|
Bb|-----------|
Gb|-----------|
Db|--88888-7--|
Ab|--88888-7--|
Db|--88888-7--|

Eb|------------------|
Bb|------------------|
Gb|-------7--797--5--|
Db|-------7--797--5--|
Ab|-------5--575--3--|
Db|--0-0-------------|



PRECHORUS:
Eb|-----------------------------------|
Bb|-----------------------------------|
Gb|-----------------------------------|
Db|--88888-7----5-5555-3----77777-5---|
Ab|--88888-7----5-5555-3----77777-5---|
Db|--88888-7----5-5555-3----77777-5---|

Eb|------------------|
Bb|------------------|
Gb|-------7--797--5--|
Db|-------7--797--5--|
Ab|-------5--575--3--|
Db|--0-0-------------|
[ Tab from: http://www.guitaretab.com/s/smashing-pumpkins/111817.html ]
Eb|-----------------------------------|
Bb|-----------------------------------|
Gb|-----------------------------------|
Db|--88888-7----5-5555-3----77777777--|
Ab|--88888-7----5-5555-3----77777777--|
Db|--88888-7----5-5555-3----77777777--|
4x
Eb|----------------------|
Bb|----------------------|
Gb|----------------------|
Db|----------------------|
Ab|----------------------|
Db|--0000000-h2\3333-2222|
2x
Eb|------------------------------------------------------|
Bb|------------------------------------------------------|
Gb|------10-10------10-10------10-10---12/13--12/13--12--|
Db|------10-10------10-10------10-10---12/13--12/13--12--|
Ab|------8--8-------8--8-------8--8----10/11--10/11--10--|
Db|--000--------000--------000---------------------------|



BRIDGE: 36x
Eb|----------------|
Bb|----------------|
Gb|----------------|
Db|----------------|
Ab|----------------|
Db|--00-00-000-00--|

Eb|-----------------------------|
Bb|-----------------------------|
Gb|-----------------------------|
Db|-----------------------------|
Ab|-----------------------------|
Db|--////\\\\---palm mute slide-|



VERSE:      3x
Eb|-----------------------------------|
Bb|-----------------------------------|
Gb|-------7--797--5-------------------|
Db|-------7--797--5--------7-7---3-3--|
Ab|-------5--575--3--------7-7---3-3--|
Db|--0-0-------------0-0---7-7---3-3--|

Eb|-----------|
Bb|-----------|
Gb|-----------|
Db|--88888-7--|
Ab|--88888-7--|
Db|--88888-7--|
     2x
Eb|-----------------------------------|
Bb|-----------------------------------|
Gb|-------7--797--5-------------------|
Db|-------7--797--5--------7-7---3-3--|
Ab|-------5--575--3--------7-7---3-3--|
Db|--0-0-------------0-0---7-7---3-3--|



PRECHORUS:
Eb|-----------------------------------|
Bb|-----------------------------------|
Gb|-----------------------------------|
Db|--88888-7----5-5555-3----77777-5---|
Ab|--88888-7----5-5555-3----77777-5---|
Db|--88888-7----5-5555-3----77777-5---|

Eb|------------------|
Bb|------------------|
Gb|-------7--797--5--|
Db|-------7--797--5--|
Ab|-------5--575--3--|
Db|--0-0-------------|

Eb|-----------------------------------|
Bb|-----------------------------------|
Gb|-----------------------------------|
Db|--88888-7----5-5555-3----77777777--|
Ab|--88888-7----5-5555-3----77777777--|
Db|--88888-7----5-5555-3----77777777--|
4x
Eb|----------------------|
Bb|----------------------|
Gb|----------------------|
Db|----------------------|
Ab|----------------------|
Db|--0000000-h2\3333-2222|
4x
Eb|-------------------------------------------------------|
Bb|-------------------------------------------------------|
Gb|------10-10------10-10------10-10----12/13--12/13--12--|
Db|------10-10------10-10------10-10----12/13--12/13--12--|
Ab|------8--8-------8--8-------8--8-----10/11--10/11--10--|
Db|--000-------000--------000-----------------------------|
singing after 2x

  4x
Eb|------------------------|
Bb|------------------------|
Gb|------------------------|
Db|------------------------|
Ab|------------------------|
Db|--00000-h2/3-1111-0000--|
       4x
Eb|---------------------|
Bb|---------------------|
Gb|--7--7/9/10\9---8----|
Db|--7--7/9/10\9---8----|
Ab|--5--5/7/8-\7---6----|
Db|---------------------|

Eb|-------------|
Bb|-------------|
Gb|--7--7/9/10--|
Db|--7--7/9/10--|
Ab|--5--5/7/8---|
Db|-------------|
Related for White Spyder tab
Advertisement will be closed in 10 seconds