Song name
# A B C D E F G H I J K L M N O P Q R S T U V W X Y Z

Smashing Pumpkins - Tear tab

Tuning: Eb Ab Db Gb Bb Eb


INTRO
Bm Am Em Em
Bm Am Em Em
Bm Am Dsus Dsus
Bm Am Em Em

 1.2.4.
|---------------------|
|-8-7-5---------------|
|-------7-5-/9-\4~~~~-|
|---------------------|
|---------------------|
|---------------------|

 3.
|---------------------|
|-8-7-5---------------|
|-------7-5-/9-\7~~~~-|
|---------------------|
|---------------------|
|---------------------|


VERSE - Guitars tacet


PRECHORUS
Bm Am Em Em
Bm Am Em Em
Bm Am Dsus Dsus
Bm Am Em Em
Bm Am Em Em
Bm Am Em Em

 1.2.4.5.6.
|---------------------|
|-8-7-5---------------|
|-------7-5-/9-\4~~~~-|
|---------------------|
|---------------------|
|---------------------|

 3.
|---------------------|
|-8-7-5---------------|
|-------7-5-/9-\7~~~~-|
|---------------------|
|---------------------|
|---------------------|


CHORUS
Em Am Dsus Em x4


BRIDGE
C Em C Dsus


PRECHORUS 2 
Bm Am Em Em
Bm Am Em Em
Bm Am Dsus Dsus
Bm Am Em Em
Bm Am Em Em
Bm Am Em Em
Bm Am

 1.2.4.5.6.
|---------------------|
|-8-7-5---------------|
|-------7-5-/9-\4~~~~-|
|---------------------|
|---------------------|
|---------------------|

 3.
|---------------------|
|-8-7-5---------------|
|-------7-5-/9-\7~~~~-|
|---------------------|
|---------------------|
|---------------------|

 7.
|---------------|
|-8-7-5---------|
|-------7-5~~~~-|
|---------------|
|---------------|
|---------------|


INTERLUDE
                                   x2
|------------------------------------|
|---------------------------------3--|
|-4-------------------0--------2-----|
|-----------4------------------------|
|------------------------------------|
|-----0-2-3-----0-2-3-----0-2-3------|

|------------------------------------|
|---------------------------------0--|
|-4-------------------0--------2-----|
|-----------4------------------------|
|------------------------------------|
|-----0-2-3-----0-2-3-----0-2-3------|

Then strum a CMaj7 a couple times

|------------------------------------|
|---------------------------------3--|
|-4-------------------0--------2-----|
|-----------4------------------------|
|------------------------------------|
|-----0-2-3-----0-2-3-----0-2-3------|

Then strum a CMaj7 and Dsus


PRECHORUS 3 
Bm Am Em Em
Bm Am Em Em
Bm Am Em Em
Bm Am Em Em
Em Am Em Em
Em Am Em Em
Em Am Em Em
Bm Am Em Em

 1.2.3.4.5.6.7.8.
|---------------------|
|-8-7-5---------------|
|-------7-5-/9-\4~~~~-|
|---------------------|
|---------------------|
|---------------------|


CHORUS 2
Em Am Dsus Em x3
Em Am

End on Dsus2


 Chords:
  Am Bm C CMaj7 Dsus Em
|-0--2--0--0-----0---0--|
|-1--3--1--0-----3---0--|
|-2--4--0--0-----2---0--|
|-2--4--2--2-----0---2--|
|-0--2--3--3---------2--|
|--------------------0--|
Tap to rate this tab
# A B C D E F G H I J K L M N O P Q R S T U V W X Y Z