Song name
# A B C D E F G H I J K L M N O P Q R S T U V W X Y Z

Smashing Pumpkins - Sparrow tab

sparrow by smashing pumpkins    album: greatest hits(rotten apples)

tuning: standard E-A-D-G-B-E

verse
e---3--5---5--3--5---5--3--5---5--5---3--|
b----5-----5---5-----5---5-----5------0--|
g-----5--5------5--5------5--5------0----|
d---3---------3---------3----------------|
a------0---------0---------0-------------|
e---------------------------------3------|

chorus #1
e-------8-8--------5---------0---------0----|
b-------8-8-------6--6------1--1---0h1---1--|
g-----0-----0----7----7----2----2---------2-|
d--------------0----------------------------|
a---8--------------------0---------0--------|
e-------------------------------------------|

chorus #2
e-------8-8--------1---------3---------0-----|
b-------8-8-------3--3------1--1------1--1---|
g-----0-----0----2----2----0----0----2----2--|
d--------------0-----------------------------|
a---8--------------------3---------0---------|
e--------------------------------------------|
Tap to rate this tab
 
# A B C D E F G H I J K L M N O P Q R S T U V W X Y Z