Song name
# A B C D E F G H I J K L M N O P Q R S T U V W X Y Z

Smashing Pumpkins - Stellar tab

--title: Stellar
--release: Zeitgeist
--tuning: E A D G B e
--last updated: 02/09/2008

--INTRO 

guitar 1
|-----------3-----------------------|x4
|---------5-------------------6~~~~-|
|---5---5----5~~----5---5---5-------|
|-2---3---------------3-------------|
|-----------------------------------|
|-----------------3-------3---------|

guitar 1
|-----------------------------------------15------|x2
|-13--------------------10~~~~----------------13--|
|-----14--12--10--9~~~----------9--10--9----------|
|-------------------------------------------------|
|-------------------------------------------------|
|-------------------------------------------------|

guitar 2
|------------1------------|x2
|-1----------3----1----1--|
|-2----------2----2----0--|
|-3---------------2----2--|
|-3--------------------3--|
|-------------------------|


--VERSE

guitar 1
|------------------------------------------------|x3
|-13~~~~~-----------13~~~~~-----------13~~~~~----|
|--------14---12-----------14---12-----------14--|
|------------------------------------------------|
|------------------------------------------------|
|------------------------------------------------|

guitar 2
|--------1-----------------1-----------------1--|x2 |----| 
|-1------3----------1------3----------1------3--|   |-1--| 
|-2------2----------2------2----------2------2--|   |-2--|
|-3-----------------3-----------------3---------|   |-2--|
|-3-----------------3-----------------3---------|   |----|
|-----------------------------------------------|   |----|


--PRECHORUS

guitar 1
|---------------------------3---|x3
|-------------------------------|
|-2---------------------4/5---0-|
|-------------------------------|
|-------------------------------|
|-------------------------------|




guitar 2
|-------------------------------|x3
|-1---------------------1-------|
|-2---------------------0-------|
|-2---------------------2-------|
|-------------------------------|
|-------------------------------|

guitar 1
|-------------3------|x3
|--------------------|
|-----------------5--|
|--------------------|
|---------3----------|
|--------------------|

guitar 2
|--------1--|x3
|-1------3--|
|-0------2--|
|-2---------|
|-3---------|
|-----------|


--CHORUS

guitar 1
|---------------------3------|
|----------------------------|
|-------------------------5--|
|----------------------------|
|-----------------3----------|
|----------------------------|

guitar 2
|-----1----------------------|
|-1---3---1------1-----------|
|-2---2---2------0-----------|
|-3-------2------2-----------|
|-3--------------3-----------|
|----------------------------|


--INTERLUDE

guitar 1
|---------------------------------------|x2
|/8-8------8-8--------------------------|
|----10-10----9-9/10-10-------10-10/9-9-|
|-----------------------12-12-----------|
|---------------------------------------|
|---------------------------------------|

guitar 2
|-----------------1------|x2
|-1---------------3------|
|-0---------------2------|
|-2----------------------|
|-3----------------------|
|------------------------|




--VERSE

guitar 1
|-10~~~~~~~~~~~~~~~~~---12--10--12------15--13--12--10r8--8--|x2
|-----------------------------------13-----------------------|
|------------------------------------------------------------|
|------------------------------------------------------------|
|------------------------------------------------------------|
|------------------------------------------------------------|

guitar 2
|-1-----------------------------------------|x2
|-3---1----------------------------------1--|
|-2---2----------------------------------0--|
|-----2----------------------------------2--|
|----------------------------------------3--|
|-------------------------------------------|


--PRESOLO

|---------------------|x4
|---1----3----5----3--|
|--0----0----0----0---|
|-2----3----5----3----|
|---------------------|
|---------------------|

guitar 1
|--------------------------------------------------------------15--15--13--|
|--15~~~~~--15--17--15--13~~~~------15--13--15----15--13--15---------------|
|--------------------------------------------------------------------------|
|--------------------------------------------------------------------------|
|--------------------------------------------------------------------------|
|--------------------------------------------------------------------------|

guitar 2
|--3-------3-----------------------3--------------3---------------|
|--3-------3------------1----------3--------------3------------1--|
|--0-------0------------2----------0--------------0------------2--|
|--0-------0------------3----------0--------------0------------3--|
|--2-------2------------3----------2--------------2------------3--|
|--3-------3-----------------------3--------------3---------------|


--SOLO

|---------------------------------------------------------------------------|
|----17p15-18---18-18-17---15p13-15---15p13-17--13--------------------------|
|--------------------------------------------------14---12-14-12------------|
|----------------------------------------------------------------14---------|
|---------------------------------------------------------------------------|
|---------------------------------------------------------------------------|
     
|----------------------------------------------b15b17/15-13-12--------------|
|----------------------13~--13-15-/17~-13----------------------15-13-/17----|
|-------12-14-14-12-14------------------------------------------------------|
|-12-14---------------------------------------------------------------------|
|---------------------------------------------------------------------------|
|---------------------------------------------------------------------------|



--VERSE

|---------1-------------1-------------1--------|
|--1------3------1------3------1------3-----1--|
|--2------2------2------2------2------2-----2--|
|--3-------------3-------------3------------2--|
|--3-------------3-------------3---------------|
|----------------------------------------------|


--PRECHORUS

guitar 1
|---------------------------3---|x3
|-------------------------------|
|-2---------------------4/5---0-|
|-------------------------------|
|-------------------------------|
|-------------------------------|

guitar 2
|-------------------------------|x3
|-1---------------------1-------|
|-2---------------------0-------|
|-2---------------------2-------|
|-------------------------------|
|-------------------------------|

guitar 1
|-------------3------|x3
|--------------------|
|-----------------5--|
|--------------------|
|---------3----------|
|--------------------|

guitar 2
|--------1--|x3
|-1------3--|
|-0------2--|
|-2---------|
|-3---------|
|-----------|


--CHORUS

guitar 1
|---------------------3------|x3
|----------------------------|
|-------------------------5--|
|----------------------------|
|-----------------3----------|
|----------------------------|

guitar 2
|-----1----------------------|x3
|-1---3---1------1-----------|
|-2---2---2------0-----------|
|-3-------2------2-----------|
|-3--------------3-----------|
|----------------------------|


--OUTRO

guitar 1
|---------------------------------------|x2
|/8-8------8-8--------------------------|
|----10-10----9-9/10-10-------10-10/9-9-|
|-----------------------12-12-----------|
|---------------------------------------|
|---------------------------------------|

guitar 2
|-----------------1------|x2
|-1---------------3------|
|-0---------------2------|
|-2----------------------|
|-3----------------------|
|------------------------|

guitar 1
|-10~~~~~~~~~~~~~~~~~---12--10--12------15--13--12--10r8--8--|x2
|-----------------------------------13-----------------------|
|------------------------------------------------------------|
|------------------------------------------------------------|
|------------------------------------------------------------|
|------------------------------------------------------------|

guitar 2
|-1-----------------------------------------|x2
|-3---1----------------------------------1--|
|-2---2----------------------------------0--|
|-----2----------------------------------2--|
|----------------------------------------3--|
|-------------------------------------------|


Tap to rate this tab
 
# A B C D E F G H I J K L M N O P Q R S T U V W X Y Z