Song name
# A B C D E F G H I J K L M N O P Q R S T U V W X Y Z

Smashing Pumpkins - Vanity tab

Help us improve GuitareTab! Take a short survey!
-------------------------------------------------------------------------------
			     Vanity - Smashing Pumpkins
-------------------------------------------------------------------------------
Tabbed by: Zache57 & an18nin18

Email:zache57@suddenlink.net/c.norman83@ntlworld.com 

Tuning:Drop D


Intro

e|---------------------------------------------------------------------------|
b|---------------------------------------------------------------------------|
g|-------------------------------10------------------------------------------|
d|-----10------------5---------8----8---8---7-5---5--------------------------|
a|---8----8---8----3---3---3-6--------6---5-----5----------------------------|
e|-8--------8----3-------3---------------------------------------------------|
  Play x 2

Verse

e|---------------------------------------------------------------------------|
b|---------------------------------------------------------------------------|
g|-------------------------------10------------------------------------------|
d|-----10------------5---------8----8---8---7-5---5--------------------------|
a|---8----8---8----3---3---3-6--------6---5-----5----------------------------|
e|-8--------8----3-------3---------------------------------------------------|
  Play x 2

Pre - Chorus

e|---------------------------------------------------------------------------|
b|---------------------------------------------------------------------------|
g|-5--5--5-5--8--8--8-8--3---3-----------------------------------------------|
d|-5--5--5-5--8--8--8-8--3---3-----------------------------------------------|
a|-3--3--3-3--6--6--6-6--1---1-----------------------------------------------|
e|---------------------------------------------------------------------------|
  Play x 2

Chorus
                             1|    2|
e|-----------------------|-----|-0~~-----------------------------------------|
b|-----------------------|-----|-0~~-----------------------------------------|
g|-----------------------|-3~~-|-7~~-----------------------------------------|
d|-3---5---3---1---3---1-|-3~~-|-7~~-----------------------------------------|
a|-3---3---3---1---1---1-|-1~~-|-5~~-----------------------------------------|
e|-3---3---3---1---1---1-|-----|-0~~-----------------------------------------|

e|---------------------------------------------------------------------------|
b|---------------------------------------------------------------------------|
g|-------------------------------10------------------------------------------|
d|-----10------------5---------8----8---8---7-5---5--------------------------|
a|---8----8---8----3---3---3-6--------6---5-----5----------------------------|
e|-8--------8----3-------3---------------------------------------------------|
  Play x 2

e|---------------------------------------------------------------------------|
b|---------------------------------------------------------------------------|
g|-5--5--5-5--8--8--8-8--3---3-----------------------------------------------|
d|-5--5--5-5--8--8--8-8--3---3-----------------------------------------------|
a|-3--3--3-3--6--6--6-6--1---1-----------------------------------------------|
e|---------------------------------------------------------------------------|
  Play x 2

                        |1,3  |  2,4
e|-----------------------|-----|-0~~----------------------------------------|
b|-----------------------|-----|-0~~----------------------------------------|
g|-----------------------|-3~~-|-7~~----------------------------------------|
d|-3---5---3---1---3---1-|-3~~-|-7~~----------------------------------------|
a|-3---3---3---1---1---1-|-1~~-|-5~~----------------------------------------|
e-3---3---3---1---1---1-|-----|-0~~----------------------------------------|

Middle 8

e|-----------------------|--------------------------------------------------|
b|-----------------------|--------------------------------------------------|
g|-8~~---7~~---------5~~-|-8~~---7~~----------------------------------------|
d|-8~~---7~~---5~~---5~~-|-8~~---7~~----------------------------------------|
a|-6~~---5~~---5~~---3~~-|-6~~---5~~----------------------------------------|
e|-------------5~~-------|--------------------------------------------------|
  Play x 3              |

                             1|    2|
e|-----------------------|-----|-0~~----------------------------------------|
b|-----------------------|-----|-0~~----------------------------------------|
g|-----------------------|-3~~-|-7~~----------------------------------------|
d|-3---5---3---1---3---1-|-3~~-|-7~~----------------------------------------|
a|-3---3---3---1---1---1-|-1~~-|-5~~----------------------------------------|
e|-3---3---3---1---1---1-|-----|-0~~----------------------------------------|

e|----------------------------------------------------------------------------|
b|----------------------------------------------------------------------------|
g|-------------------------------10-------------------------------------------|
d|-----10------------5---------8----8---8---7-5---5---------------------------|
a|---8----8---8----3---3---3-6--------6---5-----5-----------------------------|
e|-8--------8----3-------3----------------------------------------------------|
  Play x 4

Outro
                           1,3|  2,4|
e|-----------------------|-----|-0~~------------------------------------------|
b|-----------------------|-----|-3~~------------------------------------------|
g|-----------------------|-3~~-|-2~~------------------------------------------|
d|-3---5---3---1---3---1-|-3~~-|-0~~------------------------------------------|
a|-3---3---3---1---1---1-|-1~~-|-0~~------------------------------------------|
e|-3---3---3---1---1---1-|-----|-0~~------------------------------------------|

| /  slide up
| \  slide down
| h  hammer-on
| p  pull-off
| ~  vibrato
| +  harmonic
| x  Mute note
===============================================================================
Related for Vanity tab