Song name
# A B C D E F G H I J K L M N O P Q R S T U V W X Y Z

Smashing Pumpkins - Apathys Last Kiss tab

From Brian McCall 

Apathy's Last Kiss - By Smshing Pumpkins from the
==================   B-side of the Today vinyl single

Both Guitars acoustic tone, wierd studio flanging thrown
  in on a few verses...

                     What's the matter?

|-0-0-0-0-0-0-0-0----0-0---3----3-----------------------
|-1-1-1-1-1-1-1-1----0-0---3----3-----------------------
|-0-0-0-0-0-0-0-0-XX-0-0-X-0----0-----------------------
|-2-2-2-2-2-2-2-2-XX-2-2-X-0----0-X-X-------------------
|-3-3-3-3-3-3-3-3-XX-2-2-X-X--X-X-X-X-------------------
|--------------------0-0-X-3--3-3-X-X-------------------
                                      
                     What's the difference?

|-0-0-0-0-0-0-0-0----0-0---3----3-----------------------
|-1-0-1-0-1-0-1-0----0-0---3----3-----------------------
|-0-0-0-0-0-0-0-0-XX-0-0-X-0----0-----------------------
|-2-2-2-2-2-2-2-2-XX-2-2-X-0----0-X-X-------------------
|-3-3-3-3-3-3-3-3-XX-2-2-X-X--X-X-X-X-------------------
|--------------------0-0-X-3--3-3-X-X-------------------
                                      ^repeat

This next part is muffled, I thumb-strum it...

  There is...      no safe place...

|-0000000000000000-0-------3----------------------------
|-1111111111111111-0-------3----------------------------
|-0000000000000000-0-------0----------------------------
|-2222222222222222-2-------0----------------------------
|-3333333333333333-2-------2----------------------------
|------------------0-------3----------------------------
                                   ^repeat
  Bury ... in a Bury your heart in a Bury etc...

|-0-0-0-0-0-0-0-0-0-0-0-0-0-0---------------
|-1-0-1-0-1-0-0-1-0-1-0-1-0-0---------------
|-0-0-0-0-0-0-2-0-0-0-0-0-0-2---------------
|-2-2-2-2-2-2-2-2-2-2-2-2-2-2---------------
|-3-3-3-3-3-3-3-3-3-3-3-3-3-3---------------
|-------------------------------------------

Main riff repeats, Bass enters and plays C B C B C B A G,
                                         G,G,G,G B (repeat, slides)

  Well, that's how I play it, all comments, flames, suggestions,  
etc...are welcome.  Thanks.
Tap to rate this tab
 
# A B C D E F G H I J K L M N O P Q R S T U V W X Y Z