Song name
# A B C D E F G H I J K L M N O P Q R S T U V W X Y Z

Smashing Pumpkins - Ava Adore tab

Help us improve GuitareTab! Take a short survey!
t. See http://www.olga.net/faq/ for more information.                     #
#-----------------------------------------------------------------------------#

From: "M. Alexander" 
Date: Fri, 7 May 1999 12:08:12 +0200
Subject: s/smashing_pumpkins/ava_adore.tab

Ava Adore
Words and Music by Billy Corgan
Transcribed by Elliott Bowen
With Solo by M. Alexander alex777@telbank.pl
Tuning 1/2 Step Down

...this is taken from Live performances of this song...

Figure 1 (verses)

|-----------------------------|
|-----------------------------|
|-----------------------------|
|--4-4--X-X-X-X---4-4----7-7--|
|--4-4--X-X-X-X---4-4----7-7--|
|--2-2--X-X-X-X-0-2-2----5-5--|

Figure 2a ("we must never be apart")

|-0-0-0-0-0--------------|----------------------------|
|-0-0-0-0-0---3-3-3-3-3--|----------------------------|
|-1-1-1-1-1---4-4-4-4-4--|----------------------------|
|-2-2-2-2-2---4-4-4-4-4--|--4-4--X-X-X-X--4-4----7-7--|
|-2-2-2-2-2---2-2-2-2-2--|--4-4--X-X-X-X--4-4----7-7--|
|-0-0-0-0-0--------------|--2-2--X-X-X-X--2-2----5-5--|



|-0-0-0-0-0--------------|
|-0-0-0-0-0---3-3-3-3-3--|
|-1-1-1-1-1---4-4-4-4-4--|
|-2-2-2-2-2---4-4-4-4-4--|
|-2-2-2-2-2---2-2-2-2-2--|
|-0-0-0-0-0--------------|

Figure 2b ("lovely girl")

|-0-0-0-0-0--|-------------|--------------------|-0-0-0-0-0--|
|-2-2-2-2-2--|-5-5-5-5-5---|--------------------|-2-2-2-2-2--|
|-2-2-2-2-2--|-6-6-6-6-6---|-7-7-7----4-4-4-4---|-2-2-2-2-2--|
|-2-2-2-2-2--|-6-6-6-6-6---|-7-7-7----4-4-4-4---|-2-2-2-2-2--|
|-0-0-0-0-0--|-4-4-4-4-4---|-5-5-5----2-2-2-2---|-0-0-0-0-0--|
|------------|-------------|--------------------|------------|

Figure 2c ("and I")

|---------------------|
|-3-3-3-3-------------|
|-4-4-4-4-------------|
|-4-4-4-4----7-7-7-7--|
|-2-2-2-2----7-7-7-7--|
|------------5-5-5-5--|

Then back to figure 1

Figure 2d("we must never be apart")(2nd time)

|-0-0-0-0-0------------|-0-0-0-0-0-0-0-0--|
|-0-0-0-0-0--3-3-3-3-3-|-2-2-2-2-2-2-2-2--|
|-1-1-1-1-1--4-4-4-4-4-|-2-2-2-2-2-2-2-2--|
|-2-2-2-2-2--4-4-4-4-4-|-2-2-2-2-2-2-2-2--|
|-2-2-2-2-2--2-2-2-2-2-|-0-0-0-0-0-0-0-0--|
|-0-0-0-0-0------------|------------------|

Play this twice,the second time don't play the A chords
Then play Figure 2b twice

Then play Figure 2c

Figure 3("in you I see dirty")

|-----------------------|
|-----------------------|
|-----------------------|
|-4-4--X-X-X-X-X-X--4-4-|
|-4-4--X-X-X-X-X-X--4-4-|
|-2-2--X-X-X-X-X-X--2-2-|

Then play a Bminor for 1 measure

Into the solo,I will have this soon
During the solo play Figure 2b

Then play Figure 2c

Then the song goes back to the verse.
Play Figure 1
After every 2 measures play Figure 2a (i think)

Then the song ends on Figure 3

Solo By M. Alexander (alex777@telbank.pl)=20
|------------------------------------------------------------------------
|------------------------------------------------------------------------
|----------------------------------9~-----------11~9p11h9-9\6-6p8-6\4-----5^(8)|
|--------------------7-7-9-9-11-11---11-9-11-9~~-----------------------7-7-----|
|------------7-7-9-9-----------------------------------------------------------|
|-5-5-7-7-9-9------------------------------------------------------------------|
This goes in right after you play figure 3 for the first time. The =
ending bend should be slow, long, and go up to the pitch of the eighth =
fret. That's all!
Related for Ava Adore tab