Song name
# A B C D E F G H I J K L M N O P Q R S T U V W X Y Z

Smashing Pumpkins - Geek Usa tab

Intro
Gtrs 1 & 2
Distorted
e|----------------------------------|
B|----------------------------------|
G|----------------------------------|2x
D|----------------------------------|
A|----------------------------------|
E|-3/12-0--0----0--0----0-0-0-0-0-0-|

Riff A
Distorted
e|---------------------------------------|
B|---------------------------------------|
G|---------------------------------------|
D|------------------------------------12-|
A|------------------------------------10-|
E|-3/12--0---0-----0---0-----0--0--0-----|

e|---------------------------------------|
B|---------------------------------------|
G|---------------------------------------|
D|---------------------------------------|
A|------------------------------------12-|
E|-3/12--0---0-----0---0-----0--0--0--10-|

Play Riff A 4 times

Gtr 3
Played with Riff A
Distorted
e|-------------------|--------------------------|----------------------|
B|-------------------|--------------------------|----------------------|
G|-------------/16~--|---------------------/12~-|--------------14b16~--|
D|-------------------|--------------------------|----------------------|
A|-------------------|--------------------------|----------------------|
E|-------------------|--------------------------|----------------------|

e|------------------|
B|------------------|
G|------------------|
D|------------12b~--|
A|------------------|
E|------------------|

Verse Riff
Gtrs 1 & 2
Distorted
e|------------------------------------------|
B|------------------------------------------|
G|---9--------7------9-----9--9--9----------|3x
D|---9--------7------9-----9--9--9--7/9/5---|
A|---7--------5------7-----7--7--7--7/9/5---|
E|---0----0-------0--0-----0--0--0--5/7/3---|

e|------------------------------------------|
B|------------------------------------------|
G|-9---------7----9-------------------------|
D|-9---------7----9--7-----6--6-----5-------|
A|-7---------5----7--7-----6--6-----5-------|
E|-0----0---------0--5-----4--4--0--3-------|

Play Riff 2 times

Chorus Riff
Gtrs 1 & 2
Distorted
e|-------------------------------|-----------------------------|
B|-------------------------------|-----------------------------|
G|-----------7-------------9-----|-----------------------------|
D|-----------7-------------9-----|-5--5-5-5-5-5-5/7-7-7-7------|
A|-----------5-------------7-----|-5--5-5-5-5-5-5/7-7-7-7------|
E|---0-0-0-0---0-0---0-0-0---0-0-|-3--3-3-3-3-3-3/5-5-5-5--0-0-|

e|----------------------------|
B|----------------------------|
G|----------------------9-----|
D|----------------------9-----|
A|/7-5------------------7-----|
E|-----7-6-5-3--0---0-0---0-0-|

e|--------------------------------|
B|--------------------------------|
G|--------------------------------|
D|---5--5-5-5-5-5-5/7-7-7-7-------|
A|---5--5-5-5-5-5-5/7-7-7-7-------|
E|---3--3-3-3-3-3-3/5-5-5-5---0-0-|

e|-----------------------------|
B|-----------------------------|
G|---------7-------------9-----|
D|---------7-------------9-----|
A|---------5-------------7-----|
E|-0-0-0-0----0-0----0-0---0-0-|

e|------------------------|
B|------------------------|
G|------------------------|
D|-5--5-5-5-5-5-5/7-7-7-7-|
A|-5--5-5-5-5-5-5/7-7-7-7-|
E|-3--3-3-3-3-3-3/5-5-5-5-|

e|----------------------------|-----------------------------------|
B|----------------------------|-----------------------------------|
G|----------------------------|-9-9-9-9-9-9-9-9-9-9-9-9-9-9-9\----|
D|---5--5-5-5--5-5-5/7-7-7-7/-|-9-9-9-9-9-9-9-9-9-9-9-9-9-9-9\----|
A|---5--5-5-5--5-5-5/7-7-7-7/-|-7-7-7-7-7-7-7-7-7-7-7-7-7-7-7\----|
E|---3--3-3-3--3-3-3/5-5-5-5/-|-0-0-0-0-0-0-0-0-0-0-0-0-0-0-0--0--|

e|--------------------------------|-------------------|
B|--------------------------------|-------------------|
G|--------------------------------|-9-----------------|
D|--------------------------------|-9-----------------|
A|---5--5-5-5--5-5-7-7--7---7-----|-7-----------------|
E|---3--3-3-3--3-3-5-5--5---5-0-0-|-0-----------------|

e|---------------------------------|
B|---------------------------------|
G|---------------------------------|
D|---------------------------------|
A|---------------------------------|
E|-3/12-0--0---0-0---0--0-0-0-0-0--|

Play Verse Riff

Fill over second verse
e|-----12-----------------------------|
B|-------15-x-12----------------15b17-|
G|----------------14-12----12-14------|
D|-----------------------14-----------|
A|------------------------------------|
E|------------------------------------|

Bridge
Gtrs 1 & 2
Distorted
e|---------------------------|-------------------|
B|---------------------------|-------------------|
G|---------------------------|-9---9---9---9-9-9-|3x
D|-7--7-7-7-7-7/9--9-9-9-9-9-|-9---9---9---9-9-9-|
A|-7--7-7-7-7-7/9--9-9-9-9-9-|-7---7---7---7-7-7-|
E|-5--5-5-5-5-5/7--7-7-7-7-7-|-0-0-0-0-0-0-0-0-0-|

e|---------------------------|-------------------|
B|---------------------------|-------------------|
G|---------------------------|-9-----------------|
D|-7--7-7-7-7-7/9--9-9-9-9-9-|-9-----------------|
A|-7--7-7-7-7-7/9--9-9-9-9-9-|-7-----------------|
E|-5--5-5-5-5-5/7--7-7-7-7-7-|-0-----------------|

Interlude
Gtr #3
Clean
e|-------------------|---------------------------|
B|-------------------|---------------------------|
G|-------------------|---------------------------|
D|-----6-------------|--------------9b11r9-------|
A|-----------6b7-----|---------------------------|
E|-------------------|---------------------------|

Gtr #1
Distorted
e|-----------------------|---------------|
B|-----------------------|---------------|
G|-----------------------|---------------|
D|-----2---2---2---2--2--|-4---4---4---4-|
A|-----2---2---2---2--2--|-4---4---4---4-|
E|-----0---0---0---0--0--|-2---2---2---2-|

e|-----------------------|----------------------|
B|-----------------------|----------------------|
G|-2---------------------|------------4/6-------|
D|-2---------------------|--------4p2-----------|
A|-0---------------------|----------------------|
E|-----------------------|----------------------|

Gtr #2
Distorted
e|-----------------------|-------------------|
B|-----------------------|-------------------|
G|-----------------------|-------------------|
D|-----2---2---2---2--2--|-4---4---4---------|
A|-----2---2---2---2--2--|-4---4---4---------|
E|-----0---0---0---0--0--|-2---2---2---2/12\-|

e|-----------------------|-------------------|
B|-----------------------|-------------------|
G|-----------------------|------9/11---------|
D|-7---------------------|-7-----------------|
A|-0---------------------|-0-----------------|
E|-----------------------|-------------------|

Gtr #3
Distorted
e|-----------------------|----------------------------|
B|-----------------------|----------------------------|
G|-----13-------8b9------|-9------9/11--------9--9--9-|
D|-----x--------x--------|-x------x-----------x--x--x-|
A|-----11-------6b7------|-7------7/9---------7--7--7-|
E|-----------------------|----------------------------|

Gtr #1
Distorted
e|-----------------------|------------------|
B|-----------------------|------------------|
G|-----------------------|------------------|
D|-----2---2---2---2--2--|-4---4---4-----4/-|
A|-----2---2---2---2--2--|-4---4---4-----4/-|
E|-----0---0---0---0--0--|-2---2---2-----2/-|

e|-----------------------|------------------|
B|-----------------------|------------------|
G|-2---------------------|-6\4--4/6--6/9--9-|
D|-2---------------------|-4\2--2/4--4/7--7-|
A|-0---------------------|------------------|
E|-----------------------|------------------|

Gtr #2
Distorted
e|-----------------------|------------------|
B|-----------------------|------------------|
G|-----------------------|------------------|
D|-----2---2---2---2--2--|-4---4---4-----4/-|
A|-----2---2---2---2--2--|-4---4---4-----4/-|
E|-----0---0---0---0--0--|-2---2---2-----2/-|

e|-----------------------|------------------------|
B|-----------------------|------------------------|
G|-----------------------|-11\9--9/11-11/13--13---|
D|-7---------------------|-9-\7--7/9--9/11---11---|
A|-0---------------------|------------------------|
E|-----------------------|------------------------|

Gtr #3
Distorted
e|-----------------------|------------------------|
B|-----------------------|------------------------|
G|-----13-----8b9--------|-9-----9-11----------6--|
D|-----x------x----------|-x-----x-------------x--|
A|-----11-----6b7--------|-7-----7/9-----------4--|
E|-----------------------|------------------------|

Gtr #1
Distorted
e|-------------------------|----------------------|
B|-------------------------|----------------------|
G|-------------------------|----------------------|
D|-----2---2--2--2---2--2--|-4----4----4----------|
A|-----2---2--2--2---2--2--|-4----4----4---0--0---|
E|-----0---0--0--0---0--0--|-2----2----2----------|

e|-------------------------|
B|-------------------------|
G|-2----------------6------|
D|-----------/7------------|
A|-------------------------|
E|-------------------------|

Gtr #2
Distorted
e|-------------------------|---------------------|
B|-------------------------|---------------------|
G|-------------------------|---------------------|
D|-----2-------2---2--2----|-4---4---4-----------|
A|-----2-------2---2--2----|-4---4---4-----0--0--|
E|-----0-------0---0--0----|-2---2---2-----------|

e|-------------------------|
B|-------------------------|
G|-----------------9-------|
D|--7--------/11-----------|
A|--0----------------------|
E|-------------------------|

Gtr #3
Distorted
e|-------------------------|--------------------------|
B|-------------------------|--------------------------|
G|-----/13--------8b9------|---------11-------/14-----|
D|------x---------x--------|--------/x---------x------|
A|-----/11--------6b7------|--------/9--------/12-----|
E|-------------------------|--------------------------|

Gtrs 1 & 2
Distorted
e|------------------------|---------------------------|
B|------------------------|---------------------------|
G|------------------------|------------2-----7-7------|
D|-----2----2--2----2--2--|-4-------4--2-----7-7---2--|
A|-----2----2--2----2--2--|-4-------4--0-----5-5---2--|
E|-----0----0--0----0--0--|-2-------2--------------0--|

Gtr #3
Distorted
e|------------------------|---------------------------|
B|------------------------|---------------------------|
G|-----/13-----8b9--------|-----/11-------/6----------|
D|------x------x----------|------x---------x----------|
A|-----/11-----6b7--------|-----/9--------/4----------|
E|------------------------|---------------------------|

Solo
e|--------12h15p12-------12h15p12------12h15p12--12h15p12|
B|---15~----------15b17----------15b17---------15--------|
G|-------------------------------------------------------|
D|-------------------------------------------------------|
A|-------------------------------------------------------|
E|-------------------------------------------------------|

e|-12h14p12-----------------------15p12------------------|
B|-------------------------------------------------------|
G|----------15-12-14b16---14b16p12-----14p12-------------|
D|------------------------------------------14-12--------|
A|-----------------------------------------------14p12---|
E|-------------------------------------------------------|

e|-------------------------------------------------------|
B|-----------------------------------------17b19---------|
G|--------------------------------14h16------------------|
D|-----------------------12-14p1---------------------14--|
A|---12b14------10-12/14---------------------------------|
E|-----------12------------------------------------------|

e|-------------------------------------------------------|
B|-------------------------------------------------------|
G|---12---14---14b15-14-12-14-16-14-12-14-16-15-14-12-14-|
D|-------------------------------------------------------|
A|-------------------------------------------------------|
E|-------------------------------------------------------|

e|-------------------------------------------------------|
B|-------------------------------------------------------|
G|-16-14-12-14-16-14-12-14-16-14-12-16-14-12-14-15-16-15-|
D|-------------------------------------------------------|
A|-------------------------------------------------------|
E|-------------------------------------------------------|

e|-------------------------------------------------------|
B|-------------15b17-15h17p15-17-15b17r15-----17b19r17---|
G|-14-16-15-14-------------------------------------------|
D|-------------------------------------------------------|
A|-------------------------------------------------------|
E|-------------------------------------------------------|

e|-------------------------------------------------------|
B|-18b20r18/19b21------------------------------------12b-|
G|------------------------------------------------19-12b-|
D|----------------18b19-18b19-18b19-18b19-20b21---19-----|
A|-------------------------------------------------------|
E|-------------------------------------------------------|

End Solo

Distortion
e|-------------------------------------------|
B|-------------------------------------------|
G|-------------------------------------------|
D|---2---2--2--2---2--2--5---5--5--5---5--5--|
A|---2---2--2--2---2--2--5---5--5--5---5--5--|
E|---0---0--0--0---0--0--3---3--3--3---3--3--|

e|-------------------------------------------|
B|-------------------------------------------|
G|-------------------------------------------|
D|--7---7--7--7---7--7-12-12-12-12-12--------|
A|--7---7--7--7---7--7-12-12-12-12-12--------|
E|--5---5--5--5---5--5-10-10-10-10-10--------|

Outro Chorus
Gtrs 1 & 2
Distorted
e|--------------------------------------------|
B|--------------------------------------------|
G|--------------------------------------------|
D|---5-----------9----------------------------|
A|---5-----------9-------------12-12-11-11-11-|
E|---3--0--0--0--7--0--0--0--0-10-10-9--9--9--|

End On
e|------------|
B|------------|
G|------------|
D|-2----------|
A|-2----------|
E|-0----------|

Its not complete and may be confusing at first but keep picking.
Tap to rate this tab
# A B C D E F G H I J K L M N O P Q R S T U V W X Y Z