Guitaretab - guitar tabs
Song name
# A B C D E F G H I J K L M N O P Q R S T U V W X Y Z

Smashing Pumpkins - Heavy Metal Machine tab

"Heavy Metal Machine" by the Smashing Pumpkins
Written by Billy Corgan
From the album "Machina/the machines of God"

Tune 2 steps down
Intro/Verse
-------------------------|
-------------------------|
-----------------------2-|
-----------0h2-----0h2---|
-------0h2---------------|
---0-0---------0-0-------|

Gtr. 2
---10~-10~-10~-10~-7~~~--|
-------------------------|
-------------------------|
-------------------------|
-------------------------|
-------------------------|

In between section (and parts of verse)

C5 or C (listen to record)

E5 (I or II)

A5 or A         E5 (III or I)


Chorus
C G A Em
C G Em7


Then repeat part
Outro played with verse riff
[ Tab from: http://www.guitaretab.com/s/smashing-pumpkins/17545.html ]
Chords
C5/C   E5(I)  E5 (II) A5/A   E5(III)
-----  -----   --0--  -----   -(0)-|
-(5)-  -----   --0--  -----   -(0)-|
--5--  -----   --x--  -(6)-   --9--|
--5--  --2--   --2--  --7--   --9--|
--3--  --2--   --2--  --7--   --7--|
-----  --0--   --0--  --5--   --7--|

  C      G      A      Em    Em7
--3--  --3--  --0--  --0--  --0--|
--5--  --3--  --5--  --0--  --3--|
--5--  --4--  --6--  --0--  --0--|
--5--  --5--  --7--  --2--  --2--|
--3--  --5--  --7--  --2--  --2--|
-----  --3--  --5--  --0--  --0--|

Song Structure
Intro
Verse
Middle Part
Chorus
Middle Part
Verse
Middle Part
Chorus
Middle Part
Verse
Outro

POSTED BY MATTHEW (guitarman_101@hotmail.com, or matt_prater_3@hotmail.com)
TABBED BY NATE (zero606@excite.com)
Related for Heavy Metal Machine tab
Advertisement will be closed in 10 seconds