Guitaretab - guitar tabs
Song name
# A B C D E F G H I J K L M N O P Q R S T U V W X Y Z

Smashing Pumpkins - Hello Kitty Kat tab

-------------------------------------------------------------------------------
Hello Kitty Kat - Smashing Pumpkins
-------------------------------------------------------------------------------
Tabbed by: IamGod 666
Email: Message me at UG; suggestions are appreciated

Tuning: Standard

The tab isn't organized exactly how the song is. 
And, I only tabbed the first chorus. The blurry 
parts of the 2nd solo are correct just listen for
the timing. All three solo's are really close actually.


	Intro/Verse (A) 
e|---------------------------------------------------------------------------|
B|---------------------------------------------------------------------------|
G|---------------------------------------------------------------------------|
D|4--4-4-4-4--4-4-4--4-4-4--4-4----------------------------------------------|
A|4--4-4-4-4--4-4-4--4-4-4--4-4----------------------------------------------|
E|2--2-2-0-2--2-2-2--2-0-2--2-2----------------------------------------------|

	Fill over A
e|---------------------------------------------------------------------------|
B|---------------------------------------------------------------------------|
G|3---------4---------6------------------------------------------------------|
D|--(Pedal)---(pedal)---(pedal)----------------------------------------------|
A|1---------2---------4----------xx\\----------------------------------------|
E|-------------------------------xx\\----------------------------------------|

	Chorus (B)
e|---------------------------------------------------------------------------|
B|---------------------------------------------------------------------------|
G|-----------------------------------------------------4-4-4-----------------|
D|6--6-6-6-6-6--2--2-2-2-2------6--6-6-6-6-6--2--2-2-2-2-2-2-----------------|
A|6--6-6-6-6-6--2--2-2-2-2-2-2--6--6-6-6-6-6--0--2-2-2-2-2-2-----------------|
E|4--4-4-4-4-4--0--0-0-0-0-0-0--4--4-4-4-4-4--0--0-0-0-----------------------|

	Solo over A (1:12)
e|---------------------------------------------------------------------------|
B|14~~~~-16h17p16-16~~-16h17/19-16h17p16p14h17~~-16h17p16p14h16~~-16h19------|
G|---------------------------------------------------------------------------|
D|---------------------------------------------------------------------------|
A|---------------------------------------------------------------------------|
E|---------------------------------------------------------------------------|

e|---------------------------------------------------------------------------|
B|21p19-21wp18r21p19p17-17-21-17~~~------------------------------------------|
G|---------------------------------------------------------------------------|
D|---------------------------------------------------------------------------|
A|---------------------------------------------------------------------------|
E|---------------------------------------------------------------------------|

	A2
e|------------------------------------||-------------------------------------|
B|-----------------------------------o||-------------------------------------|
G|------------------------------------||--4----------------------------------|
D|4--4-4-4-4--4-4-4--4-4-4--4-4(3X)--||--4----2-----------------------------|
A|4-4-4-4-4--4-4-4--4-4-4--4-4------o||--2----2-----------------------------|
E|2--2-2-0-2--2-2-2--2-0-2-2-2-------||-------0-----------------------------|

	Fill over A2
e|---------------------------------------------------------------------------|
B|---------------------------------------------------------------------------|
G|----------------------------------------4~~~-------------------------------|
D|4--4-4-2-4--4-4-4--4-2-4--4-4----------------2~~~--------------------------|
A|---------------------------------------------------------------------------|
E|---------------------------------------------------------------------------|

	Bridge (C)
e|---------------------------------------------------------------------------|
B|---------------------------------------------------------------------------|
G|4/-6--6-6-6-6-6----------------4/-6--6-6-6-6-6----------2------------------|
D|4/-6--6-6-6-6-6-2--2-2-2--2-2-4/-6--6-6-6-6-6-2--2-2-2-2------------------|
A|2/-4--4-4-6-4-4-2--2-2-2--2-2-2/-4--4-4-4-4-4-2--2-2-2-0------------------|
E|----------------0--0-0-0--0-0------------------0--0-0-0--------------------|

	C2
e|-----------------------------||--------------------------------------------|
B|----------------------------o||--------------------------------------------|
G|4/-6--6-6-6-6-6----------2---||--4/6--6-6-6-6-6-7--------------------------|
D|4/-6--6-6-6-6-6-2--2-2-2-2---||--4/6--6-6-6-6-6-7--------------------------|
A|2/-4--4-4-4-4-4-2--2-2-2-0--o||--2/4--4-4-4-4-4-5--------------------------|
E|----------------0--0-0-0-----||--------------------------------------------|

	Riff (D) 
e|------------------------------||------------------------------||-----------|
B|-----------------------------o||-----------------------------o||-----------|
G|--------------------6---------||--------------------4---------||--6--------|
D|---9-6-6---4--4-4-4-6---(8X)--||---7-4-4---2--2-2-2-4---(8X)--||--6----2---|
A|---9-6-6---4--4-4-4-4--------o||---7-4-4---2--2-2-2-2--------o||--4----2---|
E|(0)7-4-4-0-2--2-2-2---0-------||(0)5-2-2-0-0--0-0-0---0-------||-------0---|

e|---------------------------------------------------------------------------|
B|---------------------------------------------------------------------------|
G|---------------------------------------------------------------------------|
D|2----4--5--6---------------------------------------------------------------|
A|2----4--5--6---------------------------------------------------------------|
E|0----2--3--4---------------------------------------------------------------|
[ Tab from: http://www.guitaretab.com/s/smashing-pumpkins/17546.html ]
	Solo over D (2:40)
e|---------------------------------------------------------------------------|
B|---------------------------------------------------------------------------|
G|---------------------------------------------------------------------------|
D|11^13--PB13r11^13-/16\13------13/19\13-13/16~~-18^19~~-16p13p16------------|
A|-------------------------14~~----------------------------------14p13--13~~-|
E|--------------------------------------------------------------------16-----|

e|---------------------------------------------------------------------------|
B|---------------------------------------------------------------------------|
G|PB19^20-20-20-20-20-20r18p16--------------------------------------PB20r18--|
D|----------------------------18h21p18^21r18-16h18p16-----PB20r18^20---------|
A|---------------------------------------------------16~~--------------------|
E|---------------------------------------------------------------------------|

e|---------------------------------------------------------------------------|
B|--------------------------------------------------------PB23~~~~-----------|
G|-----------------------------------------------------------------22^24p20--|
D|--18h20p18--------------------------16h18p16-PB20r18^20--------------------|
A|18--------18-16-------------18p16h18---------------------------------------|
E|---------------19p18p16h18~~-----------------------------------------------|

e|--------PB19r18------------------------------------------------------------|
B|22^23~~--------19p17h19p17^21----------------------------19^21-21-21-21-21-|
G|------------------------------14~~--14h16^18r16p14--14~~-------------------|
D|----------------------------------16--------------16-----------------------|
A|---------------------------------------------------------------------------|
E|---------------------------------------------------------------------------|

e|---------------------------------------------------------------------------|
B|22-22-22-22-22~~-19^21r19-16h19p16-----------------------------------------|
G|----------------------------------16^18r16^18r16^20-16p13h16p13~-----------|
D|----------------------------------------------------------------13---------|
A|------------------------------------------------------------------16p14h16-|
E|---------------------------------------------------------------------------|


e|---------------------------------------------------------------------------|
B|---------------------------------------------------------------------------|
G|---------------------------------------------------------------------------|
D|---------------------------------------------------------------------------|
A|^18---PB14r11~~~-11^13~~~-13^14~~~-14^16~-16^17~-17^18~~~~-----------------|
E|---------------------------------------------------------------------------|

	Solo over A
e|17p14--------------------------------||--17p14-----------------------------|
B|-----17p14--------------------------o||-------17p14------------------------|
G|----------16p14----------------------||------------16p14-------------------|
D|---------------16p14-----------(7X)--||-----------------16p14--------------|
A|--------------------16p14-----------o||------------------------------------|
E|-------------------------17p14-------||------------------------------------|

	Under Cool Double Stop (DS)
e|---------------------------------------------------------------------------|
B|---------------------------------------------------------------------------|
G|---------------------------------------------------------------------------|
D|x-2-x-2--------------------------------------------------------------------|
A|x-2-x-2--------------------------------------------------------------------|
E|x-0-x-0--------------------------------------------------------------------|

	(over DS)
e|---------------------------------------------------------------------------|
B|--14---14------------------------------------------------------------------|
G|--14---14------------------------------------------------------------------|
D|16---16--------------------------------------------------------------------|
A|---------------------------------------------------------------------------|
E|---------------------------------------------------------------------------|

	Solo continues
e|---------------------------------------------------------------------------|
B|---17 PB19r17--------------------------------------------------------------|
G|/16----------18p16h18p16~~-16p14-----16p14---------------------------------|
D|--------------------------------16p14-----16p14------------16-14-----------|
A|-----------------------------------------------16p14\12/14~~----16-15-14-12|
E|---------------------------------------------------------------------------|

	(Over DS)
e|---------------------------------------------------------------------------|
B|---------------------------------------------------------------------------|
G|---------------------------------------------------------------------------|
D|x-14~~-x-14~~--------------------------------------------------------------|
A|x------x-------------------------------------------------------------------|
E|x------x-------------------------------------------------------------------|
						(Coda)
e|----------------------------------------------||---------------------------|
B|---------------------------------------------o||---------------------------|
G|----------------------------------------------||---------------------------|
D|16-14-------------/16-14--------------(3.5X)--||--/13-/14-/16-/18\---------|
A|-----16-15-14-12~~------16-15-14-12~~--------o||---------------------------|
E|----------------------------------------------||---------------------------|


	Under Coda
e|---------------------------------------------------------------------------|
B|---------------------------------------------------------------------------|
G|---------------------------------------------------------------------------|
D|x-2-x-2-x-2-x-4\\----------------------------------------------------------|
A|x-2-x2-x-2-x-4\\----------------------------------------------------------|
E|x-0-x-0-x-0-x-2\\----------------------------------------------------------|



| /  slide up
| \  slide down
| h  hammer-on
| p  pull-off
| ~  vibrato
| +  harmonic
| x  Mute note
| ^  Bend
| pb pre-bend
| r  release bend
| xx pick scratch
| wp wammy press
|(X) Certain # of times
===============================================================================
Related for Hello Kitty Kat tab