Song name
# A B C D E F G H I J K L M N O P Q R S T U V W X Y Z

Smashing Pumpkins - Pennies tab

                  S M A S H I N G   P U M P K I N S
                           P E N N I E S
Tuning
Eb Ab Db Gb Bb Eb

       (NOTE:2 GUITARS 1 ELECTRIC 1 ACOUSTIC)
Eb|-----------------------------|
Bb|---------3-------------------|THIS IS PLAYED 8X      
Gb|-----0-----0-------0-------6-|
Db|---3---3-----3---1-------5---|
Ab|-1-------------3------/6-----|
Eb|-----------------------------|
                  
Eb|-------------------------------|
Bb|-------------------------------|
Gb|-10----------7----------8------|played 2x 
Db|-10----------7----------8------|
Ab|-8-----------5----------6------|
Eb|-------------------------------|

Eb|-----------------------------|
Bb|---------3-------------------|
Gb|-----0-----0-------0-------6-|
Db|---3---3-----3---1-------5---|played 2x
Ab|-1-------------3------/6-----|
Eb|-----------------------------|


eb|-----------------------|
Ab|-----------------------|
Db|---------5--------8----|
Gb|-5-------5--------8----|
Bb|-5-------3--------6----|
Eb|-3---------------------|

Eb|-------------------------------|
Ab|---------3---------------------|played 6x
Db|-----0-----0-------0-------6---|
Gb|---3---3-----3---1-------5-----|
Bb|-1-------------3------/6-------|
Eb|-------------------------------|

Eb|-------------------------|
Ab|-------------------------|
Db|-10----7-----8-----------|
Gb|-10----7-----8-----------|
Bb|-8-----5-----6-----------|
Eb|-------------------------|


Eb|---------------------|
Ab|---------------------|played 2x
Db|--------5-----8------|
Gb|-5------5-----8------|
BB|-5------3-----6------|
Eb|-3-------------------|

Eb|----------------------|
Ab|----------------------|
Db|-3-----5-----8--------|PLAYED 4X
Gb|-3-----5-----8--------|
Bb|-1-----3-----6--------|
Eb|----------------------|

Eb|-----------------------|
Ab|-----------------------|
Db|--------5-------8------|PLAYED 3X
Gb|-5------5-------8------|
Bb|-5------3-------6------|
Eb|-3---------------------|


Eb|------------------------------------|
Ab|-----------3---------------------6--|
Db|-----0-------0---------0---------0--|PLAYED 6X
Gb|---3---3-------3-----1--------5-----|
Bb|-1----------------3-------/6--------|
Eb|------------------------------------|

 L Y R I C S

AND I STUMBLED OVER TO YOU AS YOU STUMBLED OVER ME 
AND YOU SAY THAT FAITH WAS CRUEL FOR THROWING US TOGETHER 
I ALWALYS LOVED YOU SOO ESPECIALLY WHEN YOU GO 
ALL THE WORLD MUST KNOW ,ALL THE WORLD UST KNOW THAT I LOVED YOU SO 
ITS A PITY WERE APART ITS A SHAME YOU BROKE MY HEART 
BUT I GOT A NEW GIRFREIND SHE LOOKS ALOT LIKE 
YOU DEAR NO ONE COULD EVER DO DEAR 
ALL THE WORLD MUST KNOW 
THAT I LOVED YOU SO 
ESPECIALLY WHEN YOU GO 3x GO AWAY AND LEAVE ME HERE AND GO AWAY AND LEAVE ME ALONE ALL THE WORLD MUST KNOW 
PENNIES FOR SALE3x
Tap to rate this tab
 
# A B C D E F G H I J K L M N O P Q R S T U V W X Y Z